Sweet - Fox On The Run Chords & Tabs

 

Fox On The Run Chords & Tabs

Sweet Chords & Tabs

Version: 1 Type: Tab 0 ratings
1 star 2 stars 3 stars 4 stars 5 stars
comments

Fox On The Run Tab

   
-------------------------------------------------------------------------------
                     The Sweet - fox on the run
-------------------------------------------------------------------------------
Tabbed by: Viruzz
Email:     mrmocool@gmx.de

Tuning:   Standard (E A D G B E)

| /  slide up
| \  slide down
| h  hammer-on
| p  pull-off
| ~  vibrato
| +  harmonic
| *  palm mute


Intro:
======

Keyboard part:
   E       B  A    E       B  A    E       B  A    E       B  A
E|---------2--0--|---------2--0--|---------2--0--|---------2--0--|
B|-0--0--0--4--2-|-0--0--0--4--2-|-0--0--0--4--2-|-0--0--0--4--2-|
G|--1--1--1--4--2|--1--1--1--4--2|--1--1--1--4--2|--1--1--1--4--2|
D|---2--2--------|---2--2--------|---2--2--------|---2--2--------|
A|---------------|---------------|---------------|---------------|
E|---------------|---------------|---------------|---------------|
[ Tab from: http://www.guitartabs.cc/tabs/s/sweet/fox_on_the_run_tab.html ]
Guitar Part:
   E       B  A    E       B  A    E       B  A    E       B  A
E|---------------|---------------|---------------|---------------|
B|---------------|---------------|---------------|---------------|
G|---------------|---------------|---------------|---------------|
D|---------4--2--|---------4--2--|---------4--2--|---------4--2--|
A|-2-------2--0--|-2-------2--0--|-2-------2--0--|-2-------2--0--|
E|-0-------------|-0-------------|-0-------------|-0-------------|


Verse:
======
E|-----------------------------------------------------------------------|
B|-----------------------------------------------------------------------|
G|-4------------22-4-4-44-4-------22-4-4-44-4----------------------------|
D|-2------7-777-22-2-2-22-2-7-777-22-2-2-22-2-7777777777777777777777777--| x2
A|--------5-555-------------5-555-------------5555555555555555555555555--|
E|-----------------------------------------------------------------------|
                                               ************************

Chorus:
=======
* transposed - I think they play it higher
* just the chords - listen to the song to get the rhythm

   E       B  A    E       B  A    E       B  A   A             B
E|---------------|---------------|-----------------------------------|
B|---------------|---------------|-----------------------------------|
G|---------------|---------------|-----------------------------------|
D|---------4--2--|---------4--2--|---------4--2---2-------------4----| x2
A|-2-------2--0--|-2-------2--0--|-2-------2--0---0-------------2----|
E|-0-------------|-0-------------|-0---------------------------------|


Solo:
=====
* couldn't figure it out yet, if someone has it, plz email it to me

Bridge:
=======
play half of the Intro


Sequence:
=========
Intro
Verse
Chorus
Bridge
Verse
Chorus
Solo
Chorus
Outro (Just repeat "Fox on the run" several times and fade out)


Great song from "The Sweet". I wonder why noone tabbed this before.
Viruzz
Comments