Sweet - Fox On The Run Chords & Tabs

 

Fox On The Run Chords & Tabs

Sweet Chords & Tabs

Version: 1 Type: Bass Tab 0 ratings
1 star 2 stars 3 stars 4 stars 5 stars
comments

Fox On The Run Bass Tab

   
"Fox on the Run" by Sweet
Bass part by ?? (anyone know the bassist from Sweet?)
Tabbed by Dan Bogosian (UtBDan)
Visit UtBDan's band at:
http://www.geocities.com/underthbed/

INTRO
G -------------------|
D -------------------|
A -2~~~---0~~~-------|
E --------------0~---|

G -------------------|
D -------------------|
A -2~~~---0~~~-------|
E --------------0~---|

POST-CHORUS & POST-INTRO

G -----------------------------|
D ----------------0-2--2-0-----|
A -2--2--2--2--2-4----------4--|
E -----------------------------|

G -----------------------------|
D ----------------0-2--2-0-----|
A -2--2--2--2--2-4----------4--|
E -----------------------------|

VERSE

G --------------------|
D ----------------222-|
A -2--2--2--2--222----|
E --------------------|

G --------------------|
D ----------------222-|
A -2--2--2--2--222----|
E --------------------|
[ Tab from: http://www.guitartabs.cc/tabs/s/sweet/fox_on_the_run_btab.html ]
G ---------------------------|
D ---------------------------|
A -2--2--2--2--2222222222222-|
E ---------------------------|

CHORUS

G ------------------|
D ------------------|
A -2--0~0-----------|
E --------0----22-4-|

G ------------------|
D ------------------|
A -2--0~0-----------|
E --------0----22-4-|

G ------------------|
D ------------------|
A -2--0~0-----------|
E --------0----22-4-|

G ----------------------|
D ----------------------|
A ----------------------|
E -4444444444444444-4-4-|

G ----------------------|
D ----------------------|
A -2222222222222222-2-2-|
E ----------------------|

G ------------------|
D ------------------|
A -2--0~0-----------|
E --------0----22-4-|

BRIDGE

G -------------------------|
D -4--4--4--4-2-0----------|
A ----------------4--22--4-|
E -------------------------|

G ---------------------|
D -4--4--4--4-2-0------|
A ----------------4~~~-|
E ---------------------|

Great song. Hope you find my tabs as accurate as I do.
Comments