Sweet - Ballroom Blitz Chords & Tabs

 

Ballroom Blitz Chords & Tabs

Sweet Chords & Tabs

Version: 2 Type: Tab 0 ratings
1 star 2 stars 3 stars 4 stars 5 stars
comments

Ballroom Blitz Tab

One of the greatest songs ever happens to be this one that i have just completed tabbing.
i looked on the net for a good tab of it.. and there were a few ok ones but none that i
really liked.. anyway heres my version.. i did all of it except for those solos in the
end when its fading cause i didnt have the time. anyway hope this works for you i think
it sounds pretty good so play an have fun SWEET RULES!

Any questions, comments, or fellow sweet fans, i encourage you to reach me at
ben_jamin401@hotmail.com

Artist: Sweet
Song Title: Ballroom Blitz

Intro
------------------------------------------------------------------------------|
------------------------------------------------------------------------------|
------------------------------------------------------------------------------|
-9---11-12-11---9----9---11-12-11---9----9---11-12-11---9----9---11-12-11---9-|
-7---7--7--7----7----7---7--7--7----7----7---7--7--7----7----7---7--7--7----7-|
------------------------------------------------------------------------------|

Verse
-----------------------------------------------------------------------------|
-----------------------------------------------------------------------------|
-----------------------------------------------------------------------------|
-7-7-7-7--7-7-777--7-7-7-7--7-7-777--9---11-12-11---9----9---11-12-11---9----|
-7-7-7-7--7-7-777--7-7-7-7--7-7-777--7---7--7--7----7----7---7--7--7----7----|
-5-5-5-5--5-5-555--5-5-5-5--5-5-555------------------------------------------|

Verse
-----------------------------------------------------------------------------|
-----------------------------------------------------------------------------|
-----------------------------------------------------------------------------|
-7-7-7-7--7-7-777--7-7-7-7--7-7-777--9---11-12-11---9----9---11-12-11---9----|
-7-7-7-7--7-7-777--7-7-7-7--7-7-777--7---7--7--7----7----7---7--7--7----7----|
-5-5-5-5--5-5-555--5-5-5-5--5-5-555------------------------------------------|

Bridge, First Part
(Drums Alone)

Bridge, Second Part
-(guitar one)----------------------------------------------------------------|
-----------------------------------------------------------------------------|
-9--------------------------5xxxxx---9xxxxx---9---999------------------------|
-9--------4xxxxx---7xxxxx---5xxxxx---9xxxxx---9---999------------------------|
-7--------4xxxxx---7xxxxx---7xxxxx---7xxxxx---7---777------------------------|
----------2xxxxx---5xxxxx----------------------------------------------------|

-(guitar two)----------------------------------------------------------------|
-----------------------------------------------------------------------------|
-----------------------------------------------------------------------------|
-----------------------------------------------------------------------------|
-7--------9--------7--------3--------7--------7---777------------------------|
-----------------------------------------------------------------------------|

Chorus, First Part
-----------------------------------------------------------------------------|
-----------------------------------------------------------------------------|
-------------------------9xxxxx--------------------------9xxxxx--------------|
-4xxxxx--7xxxxx--9xxxxx--9xxxxx--4xxxxx--7xxxxx--9xxxxx--9xxxxx--------------|
-4xxxxx--7xxxxx--9xxxxx--7xxxxx--4xxxxx--7xxxxx--9xxxxx--7xxxxx--------------|
-2xxxxx--5xxxxx--7xxxxx----------2xxxxx--5xxxxx--7xxxxx----------------------|

Chorus, Second Part
-----------------------------------------------------------------------------|
-----------------------------------------------------------------------------|
-789xxxxxxx---789xxxxxxx---789xxxxxxx---789xxxxxxx---------------------------|
-789xxxxxxx---789xxxxxxx—--789xxxxxxx---789xxxxxxx---------------------------|
-567xxxxxxx---567xxxxxxx---567xxxxxxx---567xxxxxxx---------------------------|
-----------------------------------------------------------------------------|

Intro
-(guitar one)-----------------------------------------------------------------|
------------------------------------------------------------------------------|
------------------------------------------------------------------------------|
-9---11-12-11---9----9---11-12-11---9----9---11-12-11---9----9---11-12-11---9-|
-7---7--7--7----7----7---7--7--7----7----7---7--7--7----7----7---7--7--7----7-|
------------------------------------------------------------------------------|

-(guitar one)----------------------------------------------------------------|
-----------------------------------------------------------------------------|
-----------------------------------------------------------------------------|
-----------------------------------------------------------------------------|
-----------------------------------------13 / 2------------------------------|
-----------------------------------------------------------------------------|

Verse
-----------------------------------------------------------------------------|
-----------------------------------------------------------------------------|
-----------------------------------------------------------------------------|
-7-7-7-7--7-7-777--7-7-7-7--7-7-777--9---11-12-11---9----9---11-12-11---9----|
-7-7-7-7--7-7-777--7-7-7-7--7-7-777--7---7--7--7----7----7---7--7--7----7----|
-5-5-5-5--5-5-555--5-5-5-5--5-5-555------------------------------------------|

Verse
-----------------------------------------------------------------------------|
-----------------------------------------------------------------------------|
-----------------------------------------------------------------------------|
-7-7-7-7--7-7-777--7-7-7-7--7-7-777--9---11-12-11---9----9---11-12-11---9----|
-7-7-7-7--7-7-777--7-7-7-7--7-7-777--7---7--7--7----7----7---7--7--7----7----|
-5-5-5-5--5-5-555--5-5-5-5--5-5-555------------------------------------------|

Bridge, First Part
(Drums Alone)
[ Tab from: http://www.guitartabs.cc/tabs/s/sweet/ballroom_blitz_tab_ver_2.html ]
Bridge, Second Part
-(guitar one)----------------------------------------------------------------|
-----------------------------------------------------------------------------|
-9--------------------------5xxxxx---9xxxxx---9---999------------------------|
-9--------4xxxxx---7xxxxx---5xxxxx---9xxxxx---9---999------------------------|
-7--------4xxxxx---7xxxxx---7xxxxx---7xxxxx---7---777------------------------|
----------2xxxxx---5xxxxx----------------------------------------------------|

-(guitar two)----------------------------------------------------------------|
-----------------------------------------------------------------------------|
-----------------------------------------------------------------------------|
-----------------------------------------------------------------------------|
-7--------9--------7--------3--------7--------7---777------------------------|
-----------------------------------------------------------------------------|

Chorus, First Part
-----------------------------------------------------------------------------|
-----------------------------------------------------------------------------|
-------------------------9xxxxx--------------------------9xxxxx--------------|
-4xxxxx--7xxxxx--9xxxxx--9xxxxx--4xxxxx--7xxxxx--9xxxxx--9xxxxx--------------|
-4xxxxx--7xxxxx--9xxxxx--7xxxxx--4xxxxx--7xxxxx--9xxxxx--7xxxxx--------------|
-2xxxxx--5xxxxx--7xxxxx----------2xxxxx--5xxxxx--7xxxxx----------------------|

Chorus, Part Two (Modified)
-(guitar one)----------------------------------------------------------------|
-----------------------------------------------------------------------------|
-789xxxxxxx--78-----88-----78-----88-----78-----88------------78-------------|
-789xxxxxxx--78-----88-----78-----88-----78-----88------------78-------------|
-567xxxxxxx--56-----66-----56-----66-----56-----66------------56-------------|
-----------------------------------------------------------------------------|

-(guitar two)----------------------------------------------------------------|
-----------------------------------------------------------------------------|
--------------------------------------------------97--------7--97--------7---|
----------------------------------------------------7--7--79-----7--7--79----|
------------------------------------------------7----10-10----7---10-10------|
-----------------------------------------------------------------------------|

Intro
------------------------------------------------------------------------------|
------------------------------------------------------------------------------|
------------------------------------------------------------------------------|
-9---11-12-11---9----9---11-12-11---9----9---11-12-11---9----9---11-12-11---9-|
-7---7--7--7----7----7---7--7--7----7----7---7--7--7----7----7---7--7--7----7-|
------------------------------------------------------------------------------|

Verse
-----------------------------------------------------------------------------|
-----------------------------------------------------------------------------|
-----------------------------------------------------------------------------|
-7-7-7-7--7-7-777--7-7-7-7--7-7-777--9---11-12-11---9----9---11-12-11---9----|
-7-7-7-7--7-7-777--7-7-7-7--7-7-777--7---7--7--7----7----7---7--7--7----7----|
-5-5-5-5--5-5-555--5-5-5-5--5-5-555------------------------------------------|

Verse
-----------------------------------------------------------------------------|
-----------------------------------------------------------------------------|
-----------------------------------------------------------------------------|
-7-7-7-7--7-7-777--7-7-7-7--7-7-777--9---11-12-11---9----9---11-12-11---9----|
-7-7-7-7--7-7-777--7-7-7-7--7-7-777--7---7--7--7----7----7---7--7--7----7----|
-5-5-5-5--5-5-555--5-5-5-5--5-5-555------------------------------------------|

Bridge, First Part
(Drums Alone)

Bridge, Second Part
-(guitar one)----------------------------------------------------------------|
-----------------------------------------------------------------------------|
-9--------------------------5xxxxx---9xxxxx---9---999------------------------|
-9--------4xxxxx---7xxxxx---5xxxxx---9xxxxx---9---999------------------------|
-7--------4xxxxx---7xxxxx---7xxxxx---7xxxxx---7---777------------------------|
----------2xxxxx---5xxxxx----------------------------------------------------|


-(guitar two)----------------------------------------------------------------|
-----------------------------------------------------------------------------|
-----------------------------------------------------------------------------|
-----------------------------------------------------------------------------|
-7--------9--------7--------3--------7--------7---777------------------------|
-----------------------------------------------------------------------------|

Chorus, First Part
-----------------------------------------------------------------------------|
-----------------------------------------------------------------------------|
-------------------------9xxxxx--------------------------9xxxxx--------------|
-4xxxxx--7xxxxx--9xxxxx--9xxxxx--4xxxxx--7xxxxx--9xxxxx--9xxxxx--------------|
-4xxxxx--7xxxxx--9xxxxx--7xxxxx--4xxxxx--7xxxxx--9xxxxx--7xxxxx--------------|
-2xxxxx--5xxxxx--7xxxxx----------2xxxxx--5xxxxx--7xxxxx----------------------|

Chorus, Second Part
-----------------------------------------------------------------------------|
-----------------------------------------------------------------------------|
-789xxxxxxx---789xxxxxxx---789xxxxxxx---789xxxxxxx---------------------------|
-789xxxxxxx---789xxxxxxx—--789xxxxxxx---789xxxxxxx---------------------------|
-567xxxxxxx---567xxxxxxx---567xxxxxxx---567xxxxxxx---------------------------|
-----------------------------------------------------------------------------|

Chorus Extension
-----------------------------------------------------------------------------|
-----------------------------------------------------------------------------|
-9xxxxx-9/8----9xxxxx-9/8----9xxxxx-9/8--------------------------------------|
-9xxxxx-9/8----9xxxxx-9/8----9xxxxx-9/8--------------------------------------|
-7xxxxx-7/6----7xxxxx-7/6----7xxxxx-7/6--------------------------------------|
-----------------------------------------------------------------------------|

Intro played with second guitar riffing underneath till fade.
Comments