Swedish House Mafia - One Chords & Tabs

 

One Chords & Tabs

Swedish House Mafia Chords & Tabs

Version: 6 Type: Tab 0 ratings
1 star 2 stars 3 stars 4 stars 5 stars
comments

One Tab

Swedish house mafia one (your name) tab
Guitar 1

E|---------------------------|
B|---------------------------|
G|---------------------------|   x6
D|-7-5-----------------------|
A|-----8-7-5-5-5-5-5--5-5----|
E|---------------------------|

Guitar 2 (comes in after guitar one has riff 2/6)

E|-5-3-------------------------5-3-----3-3-3-3-3--3-5-----|
B|-----6-5-6-6-6-6-6--6-6----------6-5--------------------|
G|--------------------------------------------------------|  x6
D|--------------------------------------------------------|
A|--------------------------------------------------------|
E|--------------------------------------------------------|
Guitar 3 (comes in same time as guitar 2)

E|-3-3-3-3-3-3-3-3-3--3-3---|
B|--------------------------|
G|--------------------------|   x4
D|--------------------------|
A|--------------------------|
E|--------------------------|

E|--------------------------------------------------------|
B|--------------------------------------------------------|
G|--------------------------------------------------------|
D|--------------------------------------------------------|    x4    (can be played as 
power chords)
A|----------------------------5-5-5-5-3-3-3-3-3--3-3------|
E|-3-3-3-3---6-6-6-6-6--6-6-------------------------------|

Guitar 4 (vocal) (comes in after guitar 2 and 3 have done 2 and a bit out of 4)
E|---------5-5----------3-5-------5-5---------------5-5------------3-5-5------5-5----|
B|-3-3-3-3----------6-6-----3-3-3-----------3-3-3-3----------3-6-6-------3-3---------|
G|-----------------------------------------------------------------------------------|   x2
D|-----------------------------------------------------------------------------------|
A|-----------------------------------------------------------------------------------|
E|-----------------------------------------------------------------------------------|
Guitar 5 (comes in after guitar 2 and 3 and have done 4)
[ Tab from: http://www.guitartabs.cc/tabs/s/swedish_house_mafia/one_tab_ver_6.html ]
E|----12-13-15-13-12-------------------|
B|-15----------------15-13-------------|
G|-------------------------14--12-14---|  x4
D|-------------------------------------|
A|-------------------------------------|
E|-------------------------------------|
At end of fourth time play
G|-14-14-14-14-14-14-14-14-14-14---|  x3     (so 30 As)

Then guitar 1, 2 and 3 come in at same time
Then guitar 4
Then guitar 5
So near enough the same as before
Guitar 6
E|---------5-5-5-5-5-5-5-5-5--5-5-5-5-5-5-5-5-5---|
B|-3-3-3-3----------------------------------------|
G|------------------------------------------------|
D|------------------------------------------------|
A|------------------------------------------------|
E|------------------------------------------------|

E|-----------------5-5-3-----------------5-5-5-5-5-5-5-5-5-5---|
B|---------3-3-3-3-------6-5-6-6-6-6-6-6-----------------------|
G|-------------------------------------------------------------|
D|-------------------------------------------------------------|
A|-------------------------------------------------------------|
E|-------------------------------------------------------------|

E|---------5-5-------3-5---------5-5----|
B|-3-3-3-3-------6-6-----3-3-3-3--------|
G|--------------------------------------|
D|--------------------------------------|
A|--------------------------------------|
E|--------------------------------------|

E|---------5-5-----5-5-5-5--8-8-------3--5-5------5-5-/13-13--|
B|-3-3-3-3----------------------3-6-6--------3-3--------------|
G|------------------------------------------------------------|
D|------------------------------------------------------------|
A|------------------------------------------------------------|
E|------------------------------------------------------------|

Guitar 7
E|-------------------12-13-15-13-12------------------13-13-15-17-18-15-15-15-15-15-15-15---|
B|-15-15-15-15-15-15----------------15-14--------------------------------------------------|
G|----------------------------------------12-14--------------------------------------------|
D|-----------------------------------------------------------------------------------------|
A|-----------------------------------------------------------------------------------------|
E|-----------------------------------------------------------------------------------------|

hope this helps you out

i will be bringing a cover of this on my youtube channel before 2014 so if u r looking 
at this tab after jan 1st 2014 there will most likely be a cover of this on there
youtube:http://www.youtube.com/user/TheBoring2000
Comments