Swan Lee - Stay Chords & Tabs

 

Stay Chords & Tabs

Swan Lee Chords & Tabs

Version: 1 Type: Tab 0 ratings
1 star 2 stars 3 stars 4 stars 5 stars
comments

Stay Tab

   
But you already have a tab in your database by Swan Lee: Stay tonight! I suppose
their web address is www.swanlee.dk or maybe www.swanlee.com. They're from Denmark.

-------------------------------------------------------------------------------
			     Stay - Swan Lee
-------------------------------------------------------------------------------
Tabbed by: Per Budtz-Jørgensen	
Email: budtz38@hotmail.com

Tuning: EADGBe


Verse:

  G#/maj7	  G#m/maj7
e|---------------------------------------------------------------------------|
B|-----------------------------0*--------------------------------------------|
G|0*--0*---0*-  0*---0*---0*-----0*---0*-------------------------------------|
D|--5*---5*---5*---5*---6*---6*-----6*---------------------------------------|
A|---------------------------------------------------------------------------|
E|4---------------4----------------------------------------------------------|

*the same notes are played on a second guitar an octave higher

Chorus:

  C#				  D#6	     G/D   C
e|---------------------------------------------------------------------------|
B|--------------------------------------4------------------------------------|
G|----6-----6---------6-----6---------5----5----------5-----5----------------|
D|--6-----6-----6---6-----6-----6---5----5-----5----5-----5-----5------------|
A|4-----4-----4---4-----4-----4---6----------5----3-----3-----3--------------|
E|---------------------------------------------------------------------------|

from time to time you might strum the chords on the first beats of the measures

3rd part:

  Em9	          Cmaj7 	  Bb6		  Gm
e|---------------------------------------------------------------------------|
B|----0-----0---------0-----0---------3-----3---------3-----3----------------|
G|--0-----0-----0---0-----0-----0---0-----0-----0---0-----0-----0------------|
D|4-----4-----4---5-----5-----5---3-----3-----3---0-----0-----0--------------|
A|---------------------------------------------------------------------------|
E|---------------------------------------------------------------------------|

Alternately, I've arranged the melodic theme of the 3rd part for guitar 
(the theme is marked with stars and should be accentuated in the playing):
[ Tab from: http://www.guitartabs.cc/tabs/s/swan_lee/stay_tab.html ]
  Em9		  Cmaj7		   Bb6		   Gm
e|3*--------------0*-----------0---------------------------------------------|
B|--0-----0*----3*------0---0--------------1*--3*----------------------------|
G|------0---0-------0-----0*-----2*3*--------0---0---------3-----------------|
D|----4-------4-------2--------------3---3-----0---5*------------------------|
A|----------------3----------------1---1---3---------5---5-------------------|
E|0------------------------------------------------3---3---------------------|

  Em9		  Cmaj7		   Bb6		   Gm
e|3*--------------0*-----------0-------------------3*------------------------|
B|--0-----0*----3*------0---0--------------1*---3*---3------3----------------|
G|------0---0-------0-----0*-----2*3*--------0---0-----3---3-----------------|
D|----4-------4-------2--------------3---3-----0---------5-------------------|
A|----------------3----------------1---1---3---------------------------------|
E|0------------------------------------------------3-------------------------|

  Em9(2)	    Cmaj7	     Bb6	     Gm
e|7*----------5*-3*-0*---------------------------------------3---------------|
B|--7-----7-----------0-----0--------3*------0*--1*--3*----------------------|
G|------4---4-------------0---0---0----0---0---3---3---3---3-----------------|
D|----5-----------------2-------2--------3-------0-------5-------------------|
A|------------------3----------------1-------3-------------------------------|
E|0--------------------------------------------------3-----------------------|

  Em9(2)	    Cmaj7            Bb6	     Gm
e|7*----------5*-3*-0*-------------------------------7*----------------------|
B|--7-----7-----------0-----0--------3*------0*--1*----3-------3-------------|
G|------4---4-------------0---0---0----0---0---3---3-----3---3---------------|
D|----5-----------------2-------2--------3-------0---------5-----------------|
A|------------------3----------------1-------3-------------------------------|
E|0--------------------------------------------------3-----------------------|

Chords:

  G#maj7 G#m/maj7 C# D#6 D Em9 Em9(2) Cmaj7 Bb6 Gm
e|x------x--------4--x---5-3---7------0-----x---3----------------------------|
B|x------0--------6--4---7-0---7------0-----3---3----------------------------|
G|0------0--------6--5---7-0---4------0-----0---3----------------------------|
D|5------5--------6--5---7-4---5------2-----3---5----------------------------|
A|x------x--------4--6---5-x---x------3-----1---5----------------------------|
E|4------4-----------------0---0----------------3----------------------------|

Lyrics:

Here in the morning light
faces, they seem so bright.

Where you stay, I will be sleeping,
when you go, I will be weeping.

Here comes a rain of blue.
Sun, it won't shine for you.

Where you stay, I will be sleeping,
when you go, I will be weeping.


Fucking beauty of a song! Hope you enjoy it, you're welcome to e-mail me with comments etc.

| /  slide up
| \  slide down
| h  hammer-on
| p  pull-off
| ~  vibrato
| +  harmonic
| x  Mute note
===============================================================================
Comments