Suzi Quatro - Devil Gate Drive Chords & Tabs

 

Devil Gate Drive Chords & Tabs

Suzi Quatro Chords & Tabs

Version: 1 Type: Bass Tab 0 ratings
1 star 2 stars 3 stars 4 stars 5 stars
comments

Devil Gate Drive Bass Tab

devil gate drive-suzie quatro-bass

pretty simple piece, 12barish in E

transcribed by alex jenka

intro piano starts in E

---------------
---------------
---------------
E--777777------


-------------------------|      |--------|           |----------------------|
-------------------------|      |--------| FILL      |----------------------|PART ONE
A------------------------|      |--------|           |--44-77-44--------22--|
E---0-0-5-0-0-5--0--0-5-0| x7   |0-2-3-4-|  ONE      |55--------00--44----44|x3


-------------------|                        |--------------|-------------|
-------------------|                        |--------------|-------------|
-------------------|                        |-77-77-77-77--|-------------|
E--777--777-777-777|x2 (sound like triples) |--------------|-77-77-77-77-|

[ Tab from: http://www.guitartabs.cc/tabs/s/suzi_quatro/devil_gate_drive_btab.html ]
---------------                 ------------------
---------------                 ------------------
---------------  (FILL 2)       ------------------  THEN FILL 2  -              
E-------7------| X2             --33-222-0--------                                        



------------------------    ------------------------
------------------------    ------------------------   THEN GO TO BEGINING AND REPEAT
----------------------2-    ------------------------
-33-222-33-222-33-222---    -33-222-33-222-33-222--0

PLAY AROUND ON THE E FOR TWO BAR BEFORE YOU GO INTO THE PIANO SOLD


PIANO  SOLO


----------------------------------    --------------------------------
--------------------6-9-6---------    -------------------6-9-6--------   
-----6-9-6--------7-------7-5-4-2-    --6-9-6----------7-------------- GO TO PART ONE
E--7------7-5-3-2-----------------    -7------7-5-3-2----------0-2-3-2



OK THIS SHOULD ENOUGH TO WORK OUT THE WHOLE SONG...LISTEN FOR THE TIMMING

HAVE FUN
Comments