Suspicious Individuals - Welcome To Paradise Live Chords & Tabs

 

Welcome To Paradise Live Chords & Tabs

Suspicious Individuals Chords & Tabs

Version: 2 Type: Tab 0 ratings
1 star 2 stars 3 stars 4 stars 5 stars
comments

Welcome To Paradise Live Tab

   
"Welcome To Paradise"
as performed live by the Suspicious Individuals
written by Green Day

tune down a 1/2 step (sounds one step lower then written here)

just chords shown, not rythm, this is pretty much just like the origional
green day song except for the bridge because there's only one guitar playing
not two like green day's version on dookie. When Roy plays the bridge he
stands close to his amp so that he gets feedback thru out the bridge.

 MAIN RIFF      VERSE                        PRE-CHORUS
  E5  D5  A5    E5  D5  E5  E5  D5   G  B5     G  B5
E-------------|-----------------------------|----------|
B-------------|-----------------------------|----------|
G--9---7------|--9---7---9---9---7---4---4--|--4---4---|
D--9---7---7--|--9---7---9---9---7---5---4--|--5---4---|
A--7---5---7--|--7---5---7---7---5---5---2--|--5---2---|
E----------5--|----------------------3------|--3-------|

 CHORUS
  E5   G  A5  C5  E5   G  B5  E5   G  A5  C5  E5  B5
E-----------------------------------------------------|
B-----------------------------------------------------|
G------4---2---5-------4---4-------4---2---5-------4--|
D--2---5---2---5---2---5---4---2---5---2---5---2---4--|
A--2---5---0---3---2---5---2---2---5---0---3---2---2--|
E--0---3-----------0---3-------0---3-----------0------|
[ Tab from: http://www.guitartabs.cc/tabs/s/suspicious_individuals/welcome_to_paradise_live_tab_ver_2.html ]
 Bridge/Guitar Solo
  Em
E--0------------------------------------------------------------------------|
B--0------------------------------------------------------------------------|
G--0------------------------------------------------------------------------|
D--2------------------------------------------------------------------------|
A--2--------------------------------\7~~~~~~~~~~~~~---/2~~~~~~~~~~~~~~~~~~~-|
E--0------------------------------------------------------------------------|
   let chord ring for a while

 Bridge(cont.)
E---------------------------------------------------------------------------|
B-----------------------------------------------------(5)-------------------|
G---------------------------------------------------------(5)---------(4)---|
D--------------------\5/4/3/2/--------------/7~~~~~~----------(5)-(4)-------|
A-h3p2p0h2h3p2~~~~~---------------------------------------------------------|
E------------------------------pickscrape-----------------------------------|
                                                      natural harmonics...

 Bridge(cont.)
   E       G       F#      F
E------4-------7-------6-------5----|
B-----------------------------------|
G--4-4--4--7-7--7--6-6--6--5-5--5---|
D--2-2-----5-5-----4-4-----3-3------|
A-----------------------------------|
E-----------------------------------|
  pm..    pm..    pm..    pm..

 Bridge(cont.)
   E       G       F#      F
E--4-4-4-4-7-7-7-7-6-6-6-6-5-5-5-5--------|
B--X-X-X-X-X-X-X-X-X-X-X-X-X-X-X-X--------|
G--4-4-4-4-7-7-7-7-6-6-6-6-5-5-5-5--(4X)--|
D--2-2-2-2-5-5-5-5-4-4-4-4-3-3-3-3--------|
A-----------------------------------------|
E-----------------------------------------|

Main Riff
Verse
Chorus
Verse
Chorus
Bridge
Verse
Chorus
end on E5
Comments