Suspicious Individuals - Welcome To Paradise Chords & Tabs

 

Welcome To Paradise Chords & Tabs

Suspicious Individuals Chords & Tabs

Version: 1 Type: Bass Tab 0 ratings
1 star 2 stars 3 stars 4 stars 5 stars
comments

Welcome To Paradise Bass Tab

   
"Welcome to Paradise"
written by Green Day
as performed live by the Suspicous Individuals
Notes: This is pretty much just like the origional version by Green Day. Most
of the open notes and dead notes are just passing notes between chord hand 
position changes.

MAIN RIFF
   E            D    A
G--------------------------------|
D------------------7-------------|
A--5h7--7-7--7-0-5---0-0--0-0-0--|
E--------------------------------|

 VERSE RIFF
   E         D          E                  E               D              
G---------------------------------------------------------------------------
D-----------------------------------------------------5-4--------------4-5--
A--7-7-7-7-0-5--5-5-5-0-7-X-7-7-X-7-X-7-7--7-0-7--7-7-----0-5--5-5-5-5------
E---------------------------------------------------------------------------

    G           B               E            D                G
G---------------------------------------------------------------------------
D---------------------------------------5-4--------------4-5----------------
A---------------2--2-2--2-2-2-0--7--7-7-----0-5--5-5-5-5------------------2-
E--0-3-3--3-3-3----------------------------------------------0-3-3--3-3-3---

   B           G            B
G------------------------------------4---4---4---4-----------------|
D------------------------------------------------------------------|
A--2-2--2-2-2---------------2-2-2-2----2---2---2---2-2-2-2-2-------|
E-------------0-3-3--3-3-3-----------------------------------------|

[ Tab from: http://www.guitartabs.cc/tabs/s/suspicious_individuals/welcome_to_paradise_btab.html ]
CHORUS
  Em          G               A          C             Em
G------------------------------------------------------------------------
D------------------------------------------------------------------------
A----------------------------------------3--3-3--3-3h5-------------------
E--0-0--0-0-0-3--3-3--3-3-3-0-5-5--5-5-5----------------0-0--0--0-0-0-3--

   G             B                        Em          G          A
G----------------------------------------------------------------------------
D--------------------------------4-0-4-4-5--------2--------------------------
A----------------2-2--2-2-2-2--2---------------------------------------------
E--3-3-3-3-3-3-0---------------------------0-0--0---0-3--3-3-3-0-5-5--5-5-5--

   C              Em           B
G---------------------------------|
D---------------------------------|
A--3--3-3--3-3h5---------------2--|
E-----------------0-0-0-0-0-0-----|


BRIDGE (first time only)
   E       G           F#       F          
G-----------------------------------------|
D------9---------9---------8--------8h10--|
A--7-7---0-10-10---10--9-9---9--8-8-------|
E-----------------------------------------|

BRIDGE (for the rest of the time)
   E        G          F#       F 
G-----------------------------------------|
D------7h9-------9---------8--------8h10--|
A--8-7-----10-10---10--9-9---9--8-8-------|
E-----------------------------------------|

 
OUTRO MAIN RIFF
   E                               E           D    A           E
G---------------7h9-7---7----------------------------------------------------
D---------------------9---9--8-7-------------------7-------------------------
A--5h7---X-7-7-------------------10-7-X-7-7--7-0-5---0-0--0-0-0--5h7---X-7-7-
E----------------------------------------------------------------------------

  E    D   A           E
G-------------------------|
D--------7----------------|
A--7-0-5---0-0--0-0-0--7--|
E-------------------------|

MAIN RIFF
VERSE
CHORUS
MAIN RIFF
VERSE
CHORUS
MAIN RIFF
BRIDGE
VERSE
CHOURS
OUTRO MAIN RIFF
Comments