Suspicious Individuals - Walking Down The Street Chords & Tabs

 

Walking Down The Street Chords & Tabs

Suspicious Individuals Chords & Tabs

Version: 1 Type: Tab 0 ratings
1 star 2 stars 3 stars 4 stars 5 stars
comments

Walking Down The Street Tab

   
Song: Walking Down the Street
Artist: The Suspicious Individuals
Written by: Roy Kirby and Greg Rudawski
[ Tab from: http://www.guitartabs.cc/tabs/s/suspicious_individuals/walking_down_the_street_tab.html ]
  INTRO/VERSE 1
    E   B5    D    A          E   B5    A
E---0---------2----0----------0---------------------------|
B---0---------3----2----------0-----------------2-2-2-2---|
G---1----4----2----2----------1----4----2-2-2-2-2-2-2-2---|
D---2----4----0----2----(3X)--2----4----2-2-2-2-2-2-2-2---|
A---2----2---------0----------2----2----0-0-0-0-0-0-0-0---|
E---0-------------------------0---------------------------|
   (pm lower notes)                     pm...............
                                       (gradually release pm)
   
  CHORUS
    E5  G5   C5  G5  E5  G5  C5 D5
E-----------------------------------|
B-----------------------------------|
G-----------5---------------5---7---|
D---2---5---5---5---2---5---5---7---|
A---2---5---3---5---2---5---3---5---|
E---0---3-------3---0---3-----------|


 VERSE 2 and 3
   E5   B5    D5   A5       E5   B5  
E--------------------------------------------------------|
B----------------------------------------------2-2-2-2---|
G--------4----7----2--------------4----2-2-2-2-2-2-2-2---|
D---2----4----7----2---(3X)--2----4----2-2-2-2-2-2-2-2---|
A---2----2----5----0---------2----2----0-0-0-0-0-0-0-0---|
E---0------------------------0---------------------------|
  pm.................       pm.........................
                                      (gradually release pm)

that's it, have fun with it.
Comments