Suspicious Individuals - Walking Down The Street Chords & Tabs

 

Walking Down The Street Chords & Tabs

Suspicious Individuals Chords & Tabs

Version: 1 Type: Bass Tab 0 ratings
1 star 2 stars 3 stars 4 stars 5 stars
comments

Walking Down The Street Bass Tab

song: Walking Down the Street
artist: The Suspicious Individuals
written by: Roy Kirby and Greg Rudawski
[ Tab from: http://www.guitartabs.cc/tabs/s/suspicious_individuals/walking_down_the_street_btab.html ]
  VERSE
G-----------------------------------------------------------------------|
D-----------------------------------------------------------------------|
A----------2--2-2-5--5-5----------(3X)---------2--2-2-------------------|
E---0--0-0---------------5--5-5---------0--0-0--------5-5-5-5-5-5-5-5---|

  CHORUS
G------------------------------------------------------|
D------------------------------------------------------|
A-----------------3--3-3---------------3--3-3-5--5-5---|
E---0--0-0-3--3-3--------3--3-3-0--0-0-----------------|

 END ON
G-------|
D-------|
A-------|
E---0---|


easy huh? song rocks.
Comments