Suspicious Individuals - Skidmark Chords & Tabs

 

Skidmark Chords & Tabs

Suspicious Individuals Chords & Tabs

Version: 2 Type: Bass Tab 0 ratings
1 star 2 stars 3 stars 4 stars 5 stars
comments

Skidmark Bass Tab

here's another three riff wonder from the suspicious individuals.

                         "Skidmark"
                    (written by Roy Kirby)

main riff                     chorus
G---------------------------|-----------------------------------------------|
D---------------------------|-----------------------------------------------|
A-------5-5-7-7-7-5-5-5-5---|-------------------------------5-5-5-5-5-------|
E-5-5-----------------------|-5-5-5-5-5-3-3-3-3-3-0-0-0-0-0-----------5-5-5-|
[ Tab from: http://www.guitartabs.cc/tabs/s/suspicious_individuals/skidmark_btab_ver_2.html ]
chorus(cont.)                         bridge
G------------------------------------|---------------------------------------|
D------------------------------------|---------------------------------------|
A---------------5-5-5-5-5-5-5-5-5-5--|---------------------5-5-5-5-5---------|
E-5-5-3-3-3-3-3----------------------|-0-0-0-0-0-5-5-5-5-5-----------3-3-3-3-|

(cont.)
G-----|
D-----|
A-----|
E-3---|

main riff
chorus
main riff
chorus
main riff
bridge
main riff (guitar solo)
chorus

end on
G-----|
D-----|
A-----|
E--5--|
Comments