Suspicious Individuals - Rest Stop Chords & Tabs

 

Rest Stop Chords & Tabs

Suspicious Individuals Chords & Tabs

Version: 2 Type: Bass Tab 0 ratings
1 star 2 stars 3 stars 4 stars 5 stars
comments

Rest Stop Bass Tab

"Rest Stop" (bass)
performed by Suspicous Individuals
written by Roy Kirby

Moderately Fast Rock=204BPM

intro        main riff/verse/solo                         chorus
G-----------|--------------------------------------------|-------------------
D-----------|-----8-8-6----------------------------------|-------------------
A-----8-8-6-|-6-6-----------8-8-6-----10-10-8-----8-8-6--|-------------------
E-6-6-------|-----------6-6-------8-8---------6-6--------|-8-8-8-8-8-8-6-6-6-
[ Tab from: http://www.guitartabs.cc/tabs/s/suspicious_individuals/rest_stop_btab_ver_2.html ]
chorus(cont.)                          last bar of chorus
G--------------------------------      ---------------------------|
D--------------------------------      ---------------------------|
A-------------------6-6-6-6-6-6--      ---------------------------|
E-6-6-6-4-4-4-4-4-4--------------      --8--8--8--8--6--6--6--6---|

bridge
G--------------------------------------------------|
D--------------------------------------------------|
A-------------3-3-3-3-3-3-------------6-6-6-6-6-6--|
E-1-1-1-1-1-1-------------4-4-4-4-4-4--------------|


intro             (1x)
main riff/verse   (5x)
chorus            (3x)
last bar of ch.   (1x)
main riff/verse   (5x)
chorus            (3x)
last bar of ch.   (1x)
main riff         (2x)         
bridge            (2x)
main riff/solo    (4x)
chorus            (3x)
last bar of ch.   (1x)
main riff         (2x)

this band used to be called roy rules but their was a lineup change but it's 
still the same front man and most of the same songs.
Comments