Suspicious Individuals - Face Chords & Tabs

 

Face Chords & Tabs

Suspicious Individuals Chords & Tabs

Version: 1 Type: Tab 0 ratings
1 star 2 stars 3 stars 4 stars 5 stars
comments

Face Tab

song: F.A.C.E. (Forgetting About Carolyn Evans)
artist: Suspicious Individuals
album: Skidmark
written by: Roy Kirby

RIFF 1a                      RIFF 1b
G-----0-----0-----0-----0---|-----0-----0-----0-----0---|
D---7-----9-----7-----5-----|---7-----9-----7-----5-----|
A-5-----7-----5-----3-------|-5-----7-----5-----3-------|
E---------------------------|---------------------------|
                             pm..   pm.   pm.   pm.

RYTHM FIG.1 
G-7-7-7-7-9-9-9-9-7-7-7-7-5-5-5-5--|
D-7-7-7-7-9-9-9-9-7-7-7-7-5-5-5-5--|
A-5-5-5-5-7-7-7-7-5-5-5-5-3-3-3-3--|
E----------------------------------|
pm................................

RIFF 2
G---------------------------------7-7-7-7-7-7-7-7-7-9-9-9-9-7-7-7-7--|
D-5-5-5-5-5-5-5-5-7-7-7-7-7-7-7-7-7-7-7-7-7-7-7-7-7-9-9-9-9-7-7-7-7--|
A-5-5-5-5-5-5-5-5-7-7-7-7-7-7-7-7-5-5-5-5-5-5-5-5-5-7-7-7-7-5-5-5-5--|
E-3-3-3-3-3-3-3-3-5-5-5-5-5-5-5-5------------------------------------|

Bridge                                                             
guitar one                                         
G------------------------------------------------------------------
D------------------------------------------------------------------
A-\7~~~~~~~~~~--5~~~~~~-3~~~~~~~~~~~~-\7~~~~~~~~~~-5~~~~~~~~-3~~~~-
E------------------------------------------------------------------

guitar two
G-\9~~~~~~~~~~--7~~~~~~-5~~~~~~~~~~~~-\9~~~~~~~~~~-7~~~~~~~~-5~~~~-
D------------------------------------------------------------------
A------------------------------------------------------------------
E------------------------------------------------------------------
2nd end     3rd end    4th end
bend notes             bend notes
G---------  ---------  ---------
D---------  ---------  ---------  
A-3-3-3-3-  --3h5p3--  -3-3-3-3-  guitar 1
E---------  ---------  ---------
[ Tab from: http://www.guitartabs.cc/tabs/s/suspicious_individuals/face_tab.html ]
G-5-5-5-5-  --5h7p5--  -5-5-5-5-
D---------  ---------  ---------
A---------  ---------  --------- guitar 2
E---------  ---------  ---------

solo
G--------------------------------------------------------------
D--------------------------------------------------------------
A-10-10-10-10-9-9-9-9-7-7-7-7-5-5-5-5-3-3-3-3-2-2-2-2-0-0-0-0-- guitar 1
E--------------------------------------------------------------

G-12-12-12-12-11-11-11-11-9-9-9-9-7-7-7-7-5-5-5-5-4-4-4-4-2-2-2-2--
D------------------------------------------------------------------
A------------------------------------------------------------------ guitar 2
E------------------------------------------------------------------

G------------------14fb----12~~~~~~~----|
D-12fb----------------------------------|
A--------10~~~~~~-----------------------|
E---------------------------------------|

E------------------17fb----15~~~~~~~----|
B-15fb----------------------------------|
G--------12~~~~~~-----------------------|
D---------------------------------------|
A---------------------------------------|
E---------------------------------------|

OUTRO 
E---0----|
B---0----|
G---7----|
D---7----|
A---5----|  guitar 2 solo's during outro (don't know how to play it, just go crazy)
E--------|
strum chord


you need to guitar players to play the song correctly. during the bridge both
guitars play the same notes but in different octives, same for the solo.


GUITAR 1 (MIKE)      GUITAR 2 (ROY)
RIFF 1a (clean)      REST/halfway through play rythm fig. 1 (clean) 
RIFF 2  (dirty)      RIFF 2 (dirty)
RIFF 1a (clean)      RYTHM FIG. 1 (clean)
RIFF 1b (dirty)      RYTHM FIG. 1 (clean)
RIFF 2  (dirty)      RIFF 2 (dirty)
RIFF 1b (dirty)      RYTHM FIG. 1 (dirty)
BRIDGE  (wah)        BRIDGE (wah)
GUITAR SOLO (wah)    Guitar Solo (wah)
RIFF 2  (dirty)      RIFF 2 (dirty)
OUTRO   (dirty)      SOLO (wah)




Comments