Suspicious Individuals - Couch Potato Chords & Tabs

 

Couch Potato Chords & Tabs

Suspicious Individuals Chords & Tabs

Version: 2 Type: Tab 0 ratings
1 star 2 stars 3 stars 4 stars 5 stars
comments

Couch Potato Tab

   
this is a cool song off the Suspicious Individuals first EP Skidmark.


                    "COUCH POTATO"
                     (Roy Kirby)
                by the Suspicious Individuals

RIFF A
(dist.)
E--------------------------------------------------|
B-------------------------8-8-8-8-8-8--------------|
G-4-4-4-4-4-4-7-7-7-7-7-7-9-9-9-9-9-9-5-5-5-5-5-5--|
D-5-5-5-5-5-5-7-7-7-7-7-7-9-9-9-9-9-9-5-5-5-5-5-5--|
A-5-5-5-5-5-5-5-5-5-5-5-5-7-7-7-7-7-7-3-3-3-3-3-3--|
E-3-3-3-3-3-3--------------------------------------|

RIFF B
(dist.)
E--------------------------------------------------------------------------|
B--------------------------------------------------------------------------|
G--------------------------------------------------------------------------|
D-5-5-5-5-5-5-5-5-5-5-5-5-5-5-5-5-7-7-7-7-7-7-7-7-7-7-7-7-7-7-7-7-9-9-9-9--|
A-5-5-5-5-5-5-5-5-5-5-5-5-5-5-5-5-5-5-5-5-5-5-5-5-5-5-5-5-5-5-5-5-7-7-7-7--|
E-3-3-3-3-3-3-3-3-3-3-3-3-3-3-3-3------------------------------------------|
pm........................................................................
[ Tab from: http://www.guitartabs.cc/tabs/s/suspicious_individuals/couch_potato_tab_ver_2.html ]
E---------------------------------------------------------|
B---------------------------------------------------------|
G---------------------------------------------------------|
D-9-9-9-9-9-9-9-9-9-9-9-9-5-5-5-5-5-5-5-5-5-5-5-5-5-5-5-5-|
A-7-7-7-7-7-7-7-7-7-7-7-7-3-3-3-3-3-3-3-3-3-3-3-3-3-3-3-3-|
E---------------------------------------------------------|
pm........................................................

GUITAR SOLO (dist.w/wah pedal)
      hold bend----          hold bend----             hold bend--------------|
E-----------------------------------------------15fb-17fb-17-17-17-17-15~~/---|
B-------------------------15fb-15-15-15-15-12~~-------------------------------|
G--14fb-14-14-14-14-12~~/-----------------------------------------------------|
D-----------------------------------------------------------------------------|
A-----------------------------------------------------------------------------|
E-----------------------------------------------------------------------------|

E--------------------------------------|
B--\15-15-15-15-12-12-12---------------|
G------------------------14~~~~~~------|
D--------------------------------------|
A--------------------------------------|
E--------------------------------------|

OUTRO
E-----------------------------------|
B-------------------------8---------|
G-4-4-4-4-4-4-7-7-7-7-7-7-9--5--4---|
D-5-5-5-5-5-5-7-7-7-7-7-7-9--5--5---|
A-5-5-5-5-5-5-5-5-5-5-5-5-7--3--5---|
E-3-3-3-3-3-3-------------------3---|

RIFF A (2x)
RIFF B (2x)
RIFF A (2x)
RIFF B (2x)
RIFF A (2x)
RIFF B (1x)
RIFF A (2x)
GUITAR SOLO
RIFF A (4x)
Comments