Survivor - Eye Of The Tiger Chords & Tabs

 

Eye Of The Tiger Chords & Tabs

Survivor Chords & Tabs

Version: 7 Type: Tab 6 ratings
1 star 2 stars 3 stars 4 stars 5 stars
comments

Eye Of The Tiger Tab

   
                      Survivor - Eye of the Tiger
                          A fairly old song
                            off the Rocky
                               III&IV
                             soundtrack

Transcribed by the 'man with all the tabs' -Brian S (BLINKX1115@aol) 

    THIS IS DEFINITELY RIGHT - IGNORE EVERY OTHER TAB
       
Intro

 (PALM MUTE)
E---------------------------------------------------------------
B---------------------------------------------------------------
G---------------------------------------------------------------
D---------------------------------------------------------------
A---------------------------------------------------------------
E-8-8-8-8-8-8-8-8-8-8-8-8-8-8-8-8-8-8-8-8-8-8-8-8-8-8-8-8-8-8-8-
 
(DISTORTION) twice

   C5        A#5                               G#5  
E--------------------------------------------------------
B--------------------------------------------------------
G--------------------------------------------------------
D--10~--10---8----10~--10---8---10~---10/-8~-/-6~~-------
A--10~--10---8----10~--10---8---10~---10/-8~-/-6~~-------
E--8~~--8----6----8~~--8----6---8~~---8~/-6~-/-4~~-------

 2x
 C      D# D                 
---------------------------------------------------
---------------------------------------------------     
-5~-----8--7--8~--8--7--8~---8------------------5--
-5~-----8--7--8~--8--7--8~---8----8-----6~------5--
-3~-3-3-6--5--6~--6--5--6~---6----8-----6~------3--
----------------------------------6-----4~---------

Verse :  
[ Tab from: http://www.guitartabs.cc/tabs/s/survivor/eye_of_the_tiger_tab_ver_7.html ]
 (keep strumming)
E---------------------------------------------------------------
B---------------------------------------------------------------
G-^^---------^^------------------^^-----------------------------
D-10---------6--------------------8-------------------------10--
A-10---------6--------------------8-------------------------10--
E-8----------4--------------------6-------------------------8---
    Risin up,  back on the street...Took my time took my chances

E---------------------------------------------------------------
B---------------------------------------------------------------
G---------------------------------------------------------------
D--10--8--10---back to beginning--------------------------------
A--10--8--10----------------------------------------------------
E--8---6--8-----------------------------------------------------

Chorus :
            F5~~~~~~~~~~~~~~~~~~~~~~~~~~~  D#5~~~~~~~~  A#5
E---------------------------------------------------------------
B---------------------------------------------------------------
G------------------------------------------8--------------------
D-----------3------------------------------8------------8-------
A-----------3------------------------------6------------8-------
E-----------1-------------------------------------------6-------
  It's the..  Eye of the Tiger..It's the thrill of the fight

E------------------------------------------------------------
B------------------------------------------------------------
G-----------------------------------8------------------------
D--------3--------------------------8---8~-------------------
A--------3--------------------------6---8~-------------------
E--------1------------------------------6~-------------------
  Risin up..To the challenge of our ri-vals
Comments