Survivor - Eye Of The Tiger Chords & Tabs

 

Eye Of The Tiger Chords & Tabs

Survivor Chords & Tabs

Version: 5 Type: Tab 2 ratings
1 star 2 stars 3 stars 4 stars 5 stars
comments

Eye Of The Tiger Tab

Ok, this is way I play it:

E:-----------------------------------------------
B:------------------------------------------------
G:-------------------------------------------------
D:-------------------------------------------------
A: 2-2-2-2-2-2-2-2-2-2-2-2-2-2-2-2-2-2-2-2...etc..    (palm muted)
D:-------------------------------------------------

Then just:
[ Tab from: http://www.guitartabs.cc/tabs/s/survivor/eye_of_the_tiger_tab_ver_5.html ]
E:--------------------------------------
B:--------------------------------------
G:--------------------------------------             repeat, then:
D:9------9--7--9------9--7--9------9--4--5
A:9------9--7--9------9--7--9------9--4--5
D:9------9--7--9------9--7--9------9--4--5


E:---------------------------------------------------
B:--------------------------------------------------
G:---------------------------------------------------               repeat            
D:9------12--11--12------12--11--12------12--4--5                  
A:9------12--11--12------12--11--12------12--4--5
D:9------12--11--12------12--11--12------12--4--5


this isn't everything but at least ya get the basic idea.  
Enjoy

(this is my first tab, ain't ya proud of me)
Comments