Survivor - Eye Of The Tiger Chords & Tabs

 

Eye Of The Tiger Chords & Tabs

Survivor Chords & Tabs

Version: 4 Type: Tab 0 ratings
1 star 2 stars 3 stars 4 stars 5 stars
comments

Eye Of The Tiger Tab

Song: Eye of the Tiger
Artist: Survivour

Ya... It's a really cool guitar riff, so hey I thought... Why not
tab it out? It's pretty straight forward. 
( If you have a Boss XT-2 Xtortion pedal... set up as follows...
level: 4                     It's pretty cool.
contour: 9                 You can use this dist. for almost 
punch: 10                  everything.  
distortion: 8    

This is how it goes...  palm mute b on a string for intro
p= pull off

E-4-p--4--2--4-p--4--2--4-p--4--2---5----------------------------
B-4-p--4--4--6-p--4--2--4-p--4--2---5----------------------------
G-6-p--6--4--6-p--6--4--6-p--6--4---5----------------------------
D-6-p--6--4--6-p--6--4--6-p--6--4---7--let ring and repeat x 3
A-4-p--4--2--4-p--4--2--4-p--4--2---7----------------------------                          
E-----------------------------------5----------------------------

then go...
[ Tab from: http://www.guitartabs.cc/tabs/s/survivor/eye_of_the_tiger_tab_ver_4.html ]
E-6-6-6-4--6-6-4-6-4-7------------------------
B-6-6-6-4--6-6-4-6-4-7------------------------
G-8-8-8-6--8-8-6-8-6-7------------------------
D-8-8-8-6--8-8-6-8-6-7---let ring and repeat--
A-6-6-6-4--6-6-4-6-4-7------------------------
E--------------------5------------------------

Rising up...


I will post the lyrics and chords for the rest of the song,
when I have figured it out.

Wanna improvisea little solo, just for the impression?
You can improvise from this little scale in between bits and stuff...

E------------------------------15-18---------------------------
B------------------------15-18---------------------------------
G-------------------15-17-------------------------------------
D-------------15-17--------------------------------------------
A-------15-17--------------------------------------------------
E-15-18--------------------------------------------------------

This scale you acn use for just about anything. Move it around
on the fret board, if you like. Bend it up and down. Do whatever
you feel like!

Email me for corrections or comments. They are always welcome.

write me on: nirhajama@hotmail.com

For NOW!!!!!!!!!!

Kasper Jensen.  You will respect my power!!
Comments