Survivor - Eye Of The Tiger Power Chord Version Chords & Tabs

 

Eye Of The Tiger Power Chord Version Chords & Tabs

Survivor Chords & Tabs

Version: 1 Type: Tab 6 ratings
1 star 2 stars 3 stars 4 stars 5 stars
comments

Eye Of The Tiger Power Chord Version Tab

Song - Eye of the tiger
Artist - Survivor
Submitted by David (nightwalker903@hotmail.com)

I don't play this version often but it's good to play
|-----------------------------------------------------------------||
|-----------------------------------------------------------------||
|-----------------------------------------------------------------||
|-----------------------------------------------------------------||
|--7--7--5--7--7--5--7--7--5--3-----------------------------------||
|--5--5--3--5--5--3--5--5--3--1-----------------------------------||

he hasn't tought me the second part of the intro but i'm gonna try and tab it myself
[ Tab from: http://www.guitartabs.cc/tabs/s/survivor/eye_of_the_tiger_power_chord_version_tab.html ]
|-----------------------------------------------------------------||
|-----------------------------------------------------------------||
|-----------------------------------------------------------------||
|-----------------------------------------------------------------||
|--7--14--13--14--14--13--14--14--5--3----------------------------||
|--5--12--11--12--12--11--12--12--3--1----------------------------||


i think that sounds ok 
sounds ok to me but just incase heres another version i tried

|-----------------------------------------------------------------||
|-----------------------------------------------------------------||
|-----------------------------------------------------------------||
|-----------------------------------------------------------------||
|--7--11---9--11--11---9--11--11---7---5--------------------------||
|--5---9---7---9---9---7---9---9---5---3--------------------------||



there you go, the first song i ever learned but power chord version
try out the second parts and see whats best, email me if it needs any alterations since my amp is nacked so i cant see if its right
have fun
Comments