Survive This - Where I Belong Chords & Tabs

 

Where I Belong Chords & Tabs

Survive This Chords & Tabs

Version: 1 Type: Bass Tab 0 ratings
1 star 2 stars 3 stars 4 stars 5 stars
comments

Where I Belong Bass Tab

   
0:00 Intro
F|-----------------------------------------------------------------|
C|-----------------------------------------------------------------|
G|-----------------2-2-----0-0---------------------2-2-----0-0-----|
C|-0-0---------5-5-----------------0-0---------5-5-----------------|
   1 + 2 + 3 + 4 + 1 + 2 + 3 + 4 + 1 + 2 + 3 + 4 + 1 + 2 + 3 + 4 +

0:10 Verse
F|-----------------------------------------------------------------|
C|-----------------------------------------------------------------|
G|-5---5--------------------------------------------0--00-00-00-00-|
C|-------0-0-0-0-5-4-5-4-5-4-5-4---5---5---5-5-5-5-----------------|
   1 e + a 2 e + a 3 e + a 4 e + a 1 e + a 2 e + a 3 e + a 4 e + a

F|-----------------------------------------------------------------|
C|-----------------------------------------------------------------|
G|-5---5--------------------------------------------0--00-00-00-00-|
C|-------0-0-0-0-5-4-5-4-5-4-5-4---5---5---5-5-5-5-----------------|
   1 e + a 2 e + a 3 e + a 4 e + a 1 e + a 2 e + a 3 e + a 4 e + a

0:19 Pre-Chorus
F|----------------------------------------------------------------------------------|
C|----------------------------------------------------------------------------------|
G|----------------------------------------------------------------------------------|
C|-0--0-00-0-------0--0-00-0-------5--5-55-5-------5--5-55-5-------0----------------|
   1 + 2 + 3 + 4 + 1 + 2 + 3 + 4 + 1 + 2 + 3 + 4 + 1 + 2 + 3 + 4 + 1 + 2 + 3 + 4 + 


0:32 Chorus
F|-----------------------------------------------------------------|
C|-----------------------------------------------------------------|
G|-----------------2-2-----0-0---------------------2-2-----0-0-----|
C|-0-0---------5-5-----------------0-0---------5-5-----------------|
   1 + 2 + 3 + 4 + 1 + 2 + 3 + 4 + 1 + 2 + 3 + 4 + 1 + 2 + 3 + 4 +

F|-----------------------------------------------------------------|
C|-----------------------------------------------------------------|
G|-----------------2-2-2-2-0-0-0-0-----------------2-2-----0-0-----|
C|-0-0-0-0-5-5-5-5-----------------0-0---------5-5-----------------|
   1 + 2 + 3 + 4 + 1 + 2 + 3 + 4 + 1 + 2 + 3 + 4 + 1 + 2 + 3 + 4 +

0:51 Intro
F|-----------------------------------------------------------------|
C|-----------------------------------------------------------------|
G|-----------------2-2-----0-0---------------------2-2-----0-0-----|
C|-0-0---------5-5-----------------0-0---------5-5-----------------|
   1 + 2 + 3 + 4 + 1 + 2 + 3 + 4 + 1 + 2 + 3 + 4 + 1 + 2 + 3 + 4 +

1:01 Verse
F|-----------------------------------------------------------------|
C|-----------------------------------------------------------------|
G|-5---5--------------------------------------------0--00-00-00-00-|
C|-------0-0-0-0-5-4-5-4-5-4-5-4---5---5---5-5-5-5-----------------|
   1 e + a 2 e + a 3 e + a 4 e + a 1 e + a 2 e + a 3 e + a 4 e + a

F|-----------------------------------------------------------------|
C|-----------------------------------------------------------------|
G|-5---5--------------------------------------------0--00-00-00-00-|
C|-------0-0-0-0-5-4-5-4-5-4-5-4---5---5---5-5-5-5-----------------|
   1 e + a 2 e + a 3 e + a 4 e + a 1 e + a 2 e + a 3 e + a 4 e + a


1:11 Pre-Chorus
F|-----------------------------------------------------------------|
C|-----------------------------------------------------------------|
G|-----------------------------------------------------------------|
C|-0--0-00-0-------0--0-00-0-------5--5-55-5-------5--5-55-5-------|
   1 + 2 + 3 + 4 + 1 + 2 + 3 + 4 + 1 + 2 + 3 + 4 + 1 + 2 + 3 + 4 + 
[ Tab from: http://www.guitartabs.cc/tabs/s/survive_this/where_i_belong_btab.html ]
1:21 Chorus
F|-----------------------------------------------------------------|
C|-----------------------------------------------------------------|
G|-----------------2-2-----0-0---------------------2-2-----0-0-----|
C|-0-0---------5-5-----------------0-0---------5-5-----------------|
   1 + 2 + 3 + 4 + 1 + 2 + 3 + 4 + 1 + 2 + 3 + 4 + 1 + 2 + 3 + 4 +

F|-----------------------------------------------------------------|
C|-----------------------------------------------------------------|
G|-----------------2-2-2-2-0-0-0-0-----------------2-2-----0-0-1-1-|
C|-0-0-0-0-5-5-5-5-----------------0-0---------5-5-----------------|
   1 + 2 + 3 + 4 + 1 + 2 + 3 + 4 + 1 + 2 + 3 + 4 + 1 + 2 + 3 + 4 +

1:41 Bridge
F|-----------------------------------------------------------------|
C|-----------------------------------------------------------------|
G|-2-2-2-2-2-2-2-2-----------------0-0-0-0-0-0-0-0-----------------|
C|-----------------0-0-0-0-0-0-0-5-----------------4-4-4-4-4-4-4-4-|
   1 + 2 + 3 + 4 + 1 + 2 + 3 + 4 + 1 + 2 + 3 + 4 + 1 + 2 + 3 + 4 +

F|-----------------------------------------------------------------|
C|-----------------------------------------------------------------|
G|-2-2-2-2-2-2-2-2-----------------0-0-0-0-0-0-0-0-1-1-1-1-1-1-1---|
C|-----------------0-0-0-0-0-0-0-5-------------------------------\\|
   1 + 2 + 3 + 4 + 1 + 2 + 3 + 4 + 1 + 2 + 3 + 4 + 1 + 2 + 3 + 4 +

2:00 Breakdown
F|-------------------------------------------------------------------------|
C|o-----------------------------------------------------------------------o|
G|o-----------------------------------------------------------------------o|
C|-----000-000-000-000-9-9-9-9-5-5-5-5-000-000-000-000-9-9-9-9-5-5-5-5-----|x3
       1 e + a 2 e + a 3 e + a 4 e + a 1 e + a 2 e + a 3 e + a 4 e + a

F|---------------------------------------------------------------------------------|
C|---------------------------------------------------------------------------------|
G|---------------------------------0-0-----0-0-----2-2---------------------5-5-----|
C|-000-000-000-000-9-9-9-9-5-5-5-5-------------------------5-5-----5-5-------------|
   1 e + a 2 e + a 3 e + a 4 e + a 1 e + a 2 e + a 3 e + a 4 e + a 1 e + a 2 e + a

2:25
F|-----------------------------------------------------------------|
C|-----------------------------------------------------------------|
G|-----------------------------------------------------------------|
C|-0-0-----------------------------1212\-\-\-\-\-------------------|
   1 + 2 + 3 + 4 + 1 + 2 + 3 + 4 + 1 + 2 + 3 + 4 + 1 + 2 + 3 + 4 +

F|-----------------------------------------------------------------|
C|-----------------------------------------------------------------|
G|-----------------0-0-0-0-0---------------------------------------|
C|-5-5-5-5-5-5-5-5-------------------------------------------------|
   1 + 2 + 3 + 4 + 1 + 2 + 3 + 4 + 1 + 2 + 3 + 4 + 1 + 2 + 3 + 4 +

2:40 Chorus
F|-----------------------------------------------------------------|
C|-----------------------------------------------------------------|
G|-----------------2-2-----0-0---------------------2-2-----0-0-----|
C|-0-0---------5-5-----------------0-0---------5-5-----------------|
   1 + 2 + 3 + 4 + 1 + 2 + 3 + 4 + 1 + 2 + 3 + 4 + 1 + 2 + 3 + 4 +

F|-----------------------------------------------------------------|
C|-----------------------------------------------------------------|
G|-----------------2-2-2-2-0-0-0-0-----------------2-2-----0-0-----|
C|-0-0-0-0-5-5-5-5-----------------0-0---------5-5-----------------|
   1 + 2 + 3 + 4 + 1 + 2 + 3 + 4 + 1 + 2 + 3 + 4 + 1 + 2 + 3 + 4 +

2:59
F|-------------------------------------------------------------------------|
C|o-----------------------------------------------------------------------o|
G|o--------------------2-2-2-2-0-0-0-0-----------------2-2-2-2-0-0-0-0----o|
C|-----0-0-0-0-5-5-5-5-----------------0-0-0-0-5-5-5-5---------------------|x2
       1 + 2 + 3 + 4 + 1 + 2 + 3 + 4 + 1 + 2 + 3 + 4 + 1 + 2 + 3 + 4 +

3:19 Outro
F|--------------------------------------------------------------------------------|
C|--------------------------------------------------------------------------------|
G|-----------------2-2-----0-0---------------------2-2-----0-0--------------------|
C|-0-0---------5-5-----------------0-0---------5-5-----------------0-0------------|
   1 + 2 + 3 + 4 + 1 + 2 + 3 + 4 + 1 + 2 + 3 + 4 + 1 + 2 + 3 + 4 + 1 + 2 + 3 + 4 +

Tabbed By Jack Mills

Band Page: https://www.facebook.com/survivethismusic
Comments