Survive This - Pardon Me Chords & Tabs

 

Pardon Me Chords & Tabs

Survive This Chords & Tabs

Version: 1 Type: Bass Tab 0 ratings
1 star 2 stars 3 stars 4 stars 5 stars
comments

Pardon Me Bass Tab

Okay so I tried my best with the timings on this song, so I apologize if there are some mistakes.
It's a complicated song!

  0:00 Intro
F|-------------------------------------------------------------------------------|
C|-------------------------------------------------------------------------------|
G|-1-----------1-------1-----------1-------1----------1--------1-----------------|
C|-----3---0------3--0-----3---0------3--0-----3---0-----3-0-------3-------0-----|
   1 e + a 2 e Triplet + a 4 e + a Triplet 2 e + a Triplet 4 e + a 1 e + a 2 e +

F|-------------------------------------------------------------------------------|
C|-------------------------------------------------------------------------------|
G|-5-----------5-------5-----------5-------5----------5--------1---3-------------|
C|-----7---0------7--0-----7---0------7--0-----7---0-----7-0---------------0-----|
   1 e + a 2 e Triplet + a 4 e + a Triplet 2 e + a Triplet 4 e + a 1 e + a 2 e +

F|---------------------------------------------------------------------------------|
C|---------------------------------------------------------------------------------|
G|---------------------------------------------------------------------------------|
C|-0---3---5---0--3--5-0---3---5---0--3--5-0---3---5---0--3--5-0---3---5---0--3--5-|
   1 e + a 2 e Triplet + a 4 e + a Triplet 2 e + a 3 e Triplet 4 e + a 1 e Triplet

F|---------------------------------|
C|---------------------------------|
G|---------------------------------|
C|-0---3---5---0--3--5-0---3---0---|
   1 e + a 2 e Triplet + a 4 e + a

  0:24 Breakdown
F|-------------------------------------------------------------------|
C|o-----------------------------------------------------------------o|
G|o-----------------------------------------------------------------o|
C|--0--0--0---000-0-0--0--0---------0--0--0---000-0-0--0--0----------|x2
    Triplet 3 + 4 + Triplet 3 + 4 + Triplet 3 + 4 + Triplet 3 + 4 +

  Pre-Chorus
F|-----------------------------------------------------------------|
C|-----------------------------------------------------------------|
G|-----------------------------------------------------------------|
C|-0--0--0---------0--0--0---000-0-0--0--0---------0--0--0---000-0-|
   Triplet 3 + 4 + Triplet 3 + 4 + Triplet 3 + 4 + Triplet 3 + 4 +

F|-----------------------------------------------------------------|
C|-----------------------------------------------------------------|
G|-----------------------------------------------------------------|
C|-0--0--0---------0--0--0---000-0-0--0--0---------0--0--0---------|
   Triplet 3 + 4 + Triplet 3 + 4 + Triplet 3 + 4 + Triplet 3 + 4 +

  0:50 Chorus
F|-----------------------------------------------------------------|
C|-----------------------------------------------------------------|
G|-5-5-5-5-5-5-5-5-1-1-1-1-1-1-1-1---------------------------------|
C|---------------------------------3-3-3-3-3-3-3-3-3-3-3-3-3-3-3-3-|
   1 + 2 + 3 + 4 + 1 + 2 + 3 + 4 + 1 + 2 + 3 + 4 + 1 + 2 + 3 + 4 +

F|-----------------------------------------------------------------|
C|-----------------------------------------------------------------|
G|-5-5-5-5-5-5-5-0-1-1-1-1-1-1-1-1---------------------------------|
C|---------------------------------3-3-3-3-3-3-3-3-3-3-3-3-3-3-3-3-|
   1 + 2 + 3 + 4 + 1 + 2 + 3 + 4 + 1 + 2 + 3 + 4 + 1 + 2 + 3 + 4 +

F|-----------------------------------------------------------------|
C|-----------------------------------------------------------------|
G|-1-1-1-1-1-1-1-1-3-3-3-3-3-3-3-3---------------------------------|
C|---------------------------------3-3-3-3-3-3-3-3-0-0-0-0-0-0-0-0-|
   1 + 2 + 3 + 4 + 1 + 2 + 3 + 4 + 1 + 2 + 3 + 4 + 1 + 2 + 3 + 4 +

F|-----------------------------------------------------------------|
C|-----------------------------------------------------------------|
G|-5-5-5-5-5-5-5-5-1-1-1-1-1-1-1-1---------------------------------|
C|---------------------------------3-3-3-3-3-3-3-3-3-3-3-3-3-3-3-3-|
   1 + 2 + 3 + 4 + 1 + 2 + 3 + 4 + 1 + 2 + 3 + 4 + 1 + 2 + 3 + 4 +

  Pre-Verse 1:16
F|---------------------------------|
C|---------------------------------|
G|-1-----------1-------1-----------|
C|-----3---0------3--0-----3---0---|
   1 e + a 2 e Triplet + a 4 e + a 

F|---------------------------------------------------------------------------------|
C|---------------------------------------------------------------------------------|
G|-5-----------5-------5-----------5-------5-----------5-------5-----------5-------|
C|-----7---0------7--0-----7---0------7--0-----7---0------7--0-----7---0------7--0-|
   1 e + a 2 e Triplet + a 4 e + a Triplet 2 e + a 3 e Triplet + a 1 e + a Triplet

F|-------------------------------------------------------------------------------|
C|-------------------------------------------------------------------------------|
G|-5-----------5-------5-----------5-------5----------5--------1---3-------------|
C|-----7---0------7--0-----7---0------7--0-----7---0-----7-0---------------0-----|
   1 e + a 2 e Triplet + a 4 e + a Triplet 2 e + a Triplet 4 e + a 1 e + a 2 e +

  Pre-Chorus
F|-----------------------------------------------------------------|
C|-----------------------------------------------------------------|
G|-----------------------------------------------------------------|
C|-0--0--0---------0--0--0---000-0-0--0--0---------0--0--0---000-0-|
   Triplet 3 + 4 + Triplet 3 + 4 + Triplet 3 + 4 + Triplet 3 + 4 +
[ Tab from: http://www.guitartabs.cc/tabs/s/survive_this/pardon_me_btab.html ]
F|-----------------------------------------------------------------|
C|-----------------------------------------------------------------|
G|-----------------------------------------------------------------|
C|-0--0--0---------0--0--0---000-0-0--0--0---------0--0--0---------|
   Triplet 3 + 4 + Triplet 3 + 4 + Triplet 3 + 4 + Triplet 3 + 4 +

  Chorus
F|-----------------------------------------------------------------| 
C|-----------------------------------------------------------------|
G|-5-5-5-5-5-5-5-5-1-1-1-1-1-1-1-1---------------------------------|
C|---------------------------------3-3-3-3-3-3-3-3-3-3-3-3-3-3-3-3-|
   1 + 2 + 3 + 4 + 1 + 2 + 3 + 4 + 1 + 2 + 3 + 4 + 1 + 2 + 3 + 4 +

F|-----------------------------------------------------------------|
C|-----------------------------------------------------------------|
G|-5-5-5-5-5-5-5-0-1-1-1-1-1-1-1-1---------------------------------|
C|---------------------------------3-3-3-3-3-3-3-3-3-3-3-3-3-3-3-3-|
   1 + 2 + 3 + 4 + 1 + 2 + 3 + 4 + 1 + 2 + 3 + 4 + 1 + 2 + 3 + 4 +

F|-----------------------------------------------------------------|
C|-----------------------------------------------------------------|
G|-1-1-1-1-1-1-1-1-3-3-3-3-3-3-3-3---------------------------------|
C|---------------------------------3-3-3-3-3-3-3-3-0-0-0-0-0-0-0-0-|
   1 + 2 + 3 + 4 + 1 + 2 + 3 + 4 + 1 + 2 + 3 + 4 + 1 + 2 + 3 + 4 +

F|-----------------------------------------------------------------|
C|-----------------------------------------------------------------|
G|-5-5-5-5-5-5-5-5-1-1-1-1-1-1-1-1---------------------------------|
C|---------------------------------3-3-3-3-3-3-3-3-3-3-3-3-3-3-3-3-|
   1 + 2 + 3 + 4 + 1 + 2 + 3 + 4 + 1 + 2 + 3 + 4 + 1 + 2 + 3 + 4 +

Rest

  Breakdown
F|-----------------------------------|
C|-----------------------------------|
G|-------------------------5-------4-|
C|-0-----0000000000000-------7-0-5---|

F|---------------------|
C|---------------------|
G|---------------------|
C|-00--00--0000000-0-0-|

F|---------------------------------------------|
C|---------------------------------------------|
G|---------------------------------------5-----|
C|-00--00--00--3---00----0-0-0-0-0-0-------7-0-|

F|-----------------------------------------------------------|
C|-----------------------------------------------------------|
G|-55--44--33--22--11--00------------------------------------|
C|-------------------------66--55-----00-----0-00-00-0-00-00-|

F|-------------------------------------|
C|-------------------------------------|
G|---------------------5---------------|
C|-0-----0-0-0-0-0-0-0---7-0-----00-00-|

  Chorus
F|-----------------------------------------------------------------| 
C|-----------------------------------------------------------------|
G|-----------------------------------------------------------------| 
C|-----------------------------------------------------------------| 
   1 + 2 + 3 + 4 + 1 + 2 + 3 + 4 + 1 + 2 + 3 + 4 + 1 + 2 + 3 + 4 +

F|-----------------------------------------------------------------|
C|-----------------------------------------------------------------|
G|-----------------------------------------------------------------| 
C|-----------------------------------------------------------------| 
   1 + 2 + 3 + 4 + 1 + 2 + 3 + 4 + 1 + 2 + 3 + 4 + 1 + 2 + 3 + 4 +

F|-----------------------------------------------------------------|
C|-----------------------------------------------------------------|
G|-1-1-1-1-1-1-1-1-3-3-3-3-3-3-3-3---------------------------------|
C|---------------------------------3-3-3-3-3-3-3-3-0-0-0-0-0-0-0-0-|
   1 + 2 + 3 + 4 + 1 + 2 + 3 + 4 + 1 + 2 + 3 + 4 + 1 + 2 + 3 + 4 +

F|-----------------------------------------------------------------|
C|-----------------------------------------------------------------|
G|-5-5-5-5-5-5-5-5-1-1-1-1-1-1-1-1---------------------------------|
C|---------------------------------3-3-3-3-3-3-3-3-3-3-3-3-3-3-3-3-|
   1 + 2 + 3 + 4 + 1 + 2 + 3 + 4 + 1 + 2 + 3 + 4 + 1 + 2 + 3 + 4 +

F|-----------------------------------------------------------------| 
C|-----------------------------------------------------------------|
G|-5-5-5-5-5-5-5-5-1-1-1-1-1-1-1-1---------------------------------|
C|---------------------------------3-3-3-3-3-3-3-3-3-3-3-3-3-3-3-3-|
   1 + 2 + 3 + 4 + 1 + 2 + 3 + 4 + 1 + 2 + 3 + 4 + 1 + 2 + 3 + 4 +

F|-----------------------------------------------------------------|
C|-----------------------------------------------------------------|
G|-5-5-5-5-5-5-5-0-1-1-1-1-1-1-1-1---------------------------------|
C|---------------------------------3-3-3-3-3-3-3-3-3-3-3-3-3-3-3-3-|
   1 + 2 + 3 + 4 + 1 + 2 + 3 + 4 + 1 + 2 + 3 + 4 + 1 + 2 + 3 + 4 +

F|-----------------------------------------------------------------|
C|-----------------------------------------------------------------|
G|-1-1-1-1-1-1-1-1-3-3-3-3-3-3-3-3---------------------------------|
C|---------------------------------3-3-3-3-3-3-3-3-0-0-0-0-0-0-0-0-|
   1 + 2 + 3 + 4 + 1 + 2 + 3 + 4 + 1 + 2 + 3 + 4 + 1 + 2 + 3 + 4 +

F|-----------------------------------------------------------------|
C|-----------------------------------------------------------------|
G|-5-5-5-5-5-5-5-5-1-1-1-1-1-1-1-1---------------------------------|
C|---------------------------------3-3-3-3-3-3-3-3-3-3-3-3-3-3-3-3-|
   1 + 2 + 3 + 4 + 1 + 2 + 3 + 4 + 1 + 2 + 3 + 4 + 1 + 2 + 3 + 4 +

  Outro
F|-------------------------------------------------------------------------------|
C|-------------------------------------------------------------------------------|
G|-1-----------1-------1-----------1-------1----------1--------1-----------------|
C|-----3---0------3--0-----3---0------3--0-----3---0-----3-0-------3---0---------|
   1 e + a 2 e Triplet + a 4 e + a Triplet 2 e + a Triplet 4 e + a 1 e + a 2 e +

Tabbed By Jack Mills
Comments