Surfaris - Wipeout Chords & Tabs

 

Wipeout Chords & Tabs

Surfaris Chords & Tabs

Version: 1 Type: Tab 6 ratings
1 star 2 stars 3 stars 4 stars 5 stars
comments

Wipeout Tab

The Surfaris
Wipeout
Tabbed by James Low whatisaturnip@yahoo.co.uk
Tuning-EADGBE
4/4 160bpm

Main Riff

  1  2  3  4  5  6  7  8    1  2  3  4  5  6  7  8
----------------------------------------------------
----------------------------------------------------
--------------------3--4----5--5--5--3--------3--4--  x3
-----------------5----------------------5--5--------
----------------------------------------------------
----------------------------------------------------

  1  2  3  4  5  6  7  8    1  2  3  4  5  6  7  8
----------------------------------------------------
--------------------4--5----6--6--6--4--------4--5--
--5--5--5--3-----5----------------------5--5--------
--------------5-------------------------------------
----------------------------------------------------
----------------------------------------------------

  1  2  3  4  5  6  7  8    1  2  3  4  5  6  7  8
----------------------------------------------------
--6--6--6--4----------------------------------------
--------------5-----3--4----5--5--5--3--------3--4--
-----------------5----------------------5--5--------
----------------------------------------------------
----------------------------------------------------

  1  2  3  4  5  6  7  8    1  2  3  4  5  6  7  8
----------------------------------------------------
-----------------3--6--7----8--8--8--6--------8--x--
--5--5--5--3----------------------------7--7--------
--------------5-------------------------------------
----------------------------------------------------
----------------------------------------------------

  1  2  3  4  5  6  7  8    1  2  3  4  5  6  7  8
----------------------------------------------------
--6--6--6--4----------------------------------------
--------------5-----3--4----5--5--5--3--------5--3--
-----------------5----------------------5--5--------
----------------------------------------------------
----------------------------------------------------

  1  2  3  4  5  6  7  8    1  2  3  4  5  6  7  8
----------------------------------------------------
----------------------------------------------------
----------------------------------------------------
-----5----------------------------------------------
----------------------------------------------------
----------------------------------------------------

Chord Stabs

  1  2  3  4  5  6  7  8    1  2  3  4  5  6  7  8
--8-------------------------1-----------------------
--8-------------------------1-----------------------
--9-------------------------2-----------------------
--10------------------------3-----------------------
----------------------------------------------------
----------------------------------------------------
[ Tab from: http://www.guitartabs.cc/tabs/s/surfaris/wipeout_tab.html ]
  1  2  3  4  5  6  7  8    1  2  3  4  5  6  7  8
--8-------------------------3-----------------------
--8-------------------------3-----------------------
--9-------------------------4-----------------------
--10------------------------5-----------------------
----------------------------------------------------
----------------------------------------------------

  1  2  3  4  5  6  7  8    1  2  3  4  5  6  7  8
--1-------------------------8-----------------------
--1-------------------------8-----------------------
--2-------------------------9-----------------------
--3-------------------------10----------------------
----------------------------------------------------
----------------------------------------------------

  1  2  3  4  5  6  7  8    1  2  3  4  5  6  7  8
----------------------------------------------------
----------------------------------------------------
--------------------3--4----------------------------
-----------------5----------------------------------
----------------------------------------------------
----------------------------------------------------

Solo

  1  2  3  4  5  6  7  8    1  2  3  4  5  6  7  8
-----------------8--8--8----8-----8--8-----8--8--8--
-----------------8--8--8----11----11-8-----8--8--8--
----------------------------------------------------
----------------------------------------------------
----------------------------------------------------
----------------------------------------------------

  1  2  3  4  5  6  7  8    1  2  3  4  5  6  7  8
--11----11-8-----8--8--8----8-----8--8-----8--8--8--
--8-----8--8-----8--8--8----11----11-8-----8--8--8--
----------------------------------------------------
----------------------------------------------------
----------------------------------------------------
----------------------------------------------------

  1  2  3  4  5  6  7  8    1  2  3  4  5  6  7  8
--6-----8--8-----8--8-------1--1--1--------1--1--1--
--------8--8-----8--8-------1--1--1--4-----1--1--1--
----------------------------------------------------
----------------------------------------------------
----------------------------------------------------
----------------------------------------------------

  1  2  3  4  5  6  7  8    1  2  3  4  5  6  7  8
--1--1--1--------1--1--1-------8--8--------8--8--8--
--1--1--1--4-----1--1--1---1/8-8--8--11----8--8--8--
----------------------------------------------------
----------------------------------------------------
----------------------------------------------------
----------------------------------------------------

  1  2  3  4  5  6  7  8    1  2  3  4  5  6  7  8
--8--8--8--------8--8--8----3--3--3--------3--3--3--
--8--8--8--x-----8--8--8----3--3--3--6-----3--3--3--
----------------------------------------------------
----------------------------------------------------
----------------------------------------------------
----------------------------------------------------

  1  2  3  4  5  6  7  8    1  2  3  4  5  6  7  8
--1--1--1--------1--1-1/8------8--8--8--------------
--1--1--1--4-----1--1-1/8------8--8--8--8-----------
-------------------------------------------10-8-----
-------------------------------------------------10-
----------------------------------------------------
----------------------------------------------------

Taken from Total Guitar Issue 86 August 2001
Comments