Surfaris - Wipe Out Chords & Tabs

 

Wipe Out Chords & Tabs

Surfaris Chords & Tabs

Version: 6 Type: Tab 0 ratings
1 star 2 stars 3 stars 4 stars 5 stars
comments

Wipe Out Tab

Wipe out - Surfaris

Main Riff
|----------------------------------------------------------------|
|----------------------------------------------------------------|
|---3-4-5-5-3-----2-3-4-5-5-3-----2-3-4-5-5-3-----2-3-4-5-5-3----|
|-5-----------5-5-------------5-5-------------5-5-------------5--|
|----------------------------------------------------------------|
|----------------------------------------------------------------|

|----------------------------------------------------------------|
|---4-5-6-6-4-----4-5-6-6-4--------------------------------------|
|-5-----------5-5-----------5---3-4-5-5-3-----3-4-5-5-3----------|
|-----------------------------5-----------5-5-----------5--------|
|----------------------------------------------------------------|
|----------------------------------------------------------------|

|----------------------------------------------------------------|
|---6-7-7s8-8-8-6-----8--6-6-6-4---------------------------------|
|-7---------------7-7------------5---3-4-5-5-3-----3-------------|
|----------------------------------5-----------5-5---5-5-5-5-5-5-|
|----------------------------------------------------------------|
|----------------------------------------------------------------|

[ Tab from: http://www.guitartabs.cc/tabs/s/surfaris/wipe_out_tab_ver_6.html ]
|----------------------------------------------------------------|
|----------------------------------------------------------------|
|--------------------10-------------------12--10-----------------|
|-10--------10-------10-------------10----12--10-10--------------|
|-10--------10-------8--------------10----10--8--10--------------|
|-8---------8-----------------------8------------8---------------|

Solo
|-8-8-8--8-8--8-8-8-8--8-8--11-8-8--8-8-8--8--11-8-8-------------|
|-8-8-8--8-11-8-8-8-8--8-8--8--8-8--8-8-8--8--8--8-8-------------|
|----------------------------------------------------------------|
|----------------------------------------------------------------|
|----------------------------------------------------------------|
|----------------------------------------------------------------|

|-\1-1-1-1-1--1--1-1-1--1-1--8-8-8-8---8--8--8-8-8-11-8----------|
|-\1-1-1-4-1--1--1-1-1--4-1--8-8-8-11--8--8--8-8-8-8--8----------|
|----------------------------------------------------------------|
|----------------------------------------------------------------|
|----------------------------------------------------------------|
|----------------------------------------------------------------|

|-3--3-3-3-3--1-1-1-1-1-1--8-8-8-8--8-8-8------------------------|
|-3--3-3-6-3--1-1-1-1-4-1--8-8-8-11-8-8-8------------------------|
|-----------------------------------------8-10-8-10--------------|
|---------------------------------------------------10-10-10-----|
|----------------------------------------------------------------|
|----------------------------------------------------------------|
Back to chords the do it all over again
Comments