Surfaris - Wipe Out Chords & Tabs

 

Wipe Out Chords & Tabs

Surfaris Chords & Tabs

Version: 5 Type: Tab 0 ratings
1 star 2 stars 3 stars 4 stars 5 stars
comments

Wipe Out Tab

E-------------------------------------------------------
A--------------9-9--------------------------------------
D--7-8-9-9-9-7------------------------------------------
G-------------------------------------------------------x4
B-------------------------------------------------------
E-------------------------------------------------------

E-------------------------------------------------------
A-------------------------------------------------------
D--------------9-9--------------------------------------
G--7-8-9-9-9-7------------------------------------------x2
B-------------------------------------------------------
E-------------------------------------------------------
[ Tab from: http://www.guitartabs.cc/tabs/s/surfaris/wipe_out_tab_ver_5.html ]
E-------------------------------------------------------
A--------------9-9--------------------------------------
D--7-8-9-9-9-7------------------------------------------
G-------------------------------------------------------x2
B-------------------------------------------------------
E-------------------------------------------------------

E-------------------------------------------------------
A----------------------------------------------9--9-----
D------------------11------------9-7-8-9-9-9-7------7-8-9
G--9-10-11-11-11-9----11-9-9-9-7------------------------
B-------------------------------------------------------
E-------------------------------------------------------


There you have it. It's extremely easy. Enjoy!!!
Comments