Surfaris - Wipe Out Chords & Tabs

 

Wipe Out Chords & Tabs

Surfaris Chords & Tabs

Version: 2 Type: Bass Tab

Wipe Out Bass Tab

   
-----------------------------------------------------------------------------
			    Wipeout - The Surfaris
-----------------------------------------------------------------------------

Tabbed By : Chris
e-mail: cmc_41@msn.com

Tuning:Standard

This is what the bass plays to back the guitar riff. NOTE! This IS NOT the
guitar riff, this is what is played to BACK the guitar riff as in the song!

Part 1:
G|---------------------------------------------------------------------------|
D|-10-10-8-------8-10-10-8----------8-10-10-8-----------8-10-10-8------------|
A|---------10-10-----------10-10--------------10-10---------------10-10------|
E|---------------------------------------------------------------------------|

G|-8-10-10-8----------8-10-10-8----------------------------------------------|
D|-----------10-10-10-----------10-10-8-10-10-8----------8-10-10-8-----------|
A|----------------------------------------------10-10--------------10-10-----|
E|---------------------------------------------------------------------------|

G|-10-12-12-10-------12-10-10-8----------------------------------------------|
D|-------------12-12------------10-10-8-10-10-8-------8-10-10-8--------------|
A|----------------------------------------------10-10-----------10-10-10-10--|
E|---------------------------------------------------------------------------|
[ Tab from: http://www.guitartabs.cc/tabs/s/surfaris/wipe_out_btab_ver_2.html ]
G|---------------------------------------------------------------------------|
D|---------------------------------------------------------------------------|
A|-10-10-10-10---------------------------------------------------------------|
E|---------------------------------------------------------------------------|
   Drum Solo
(I put the 1+2+3... etc in because thats the way you would count the beats if
 you were playing it to keep in time)
  1+2+3+4+1+2+3+4+1+2+3+4+1+2+3+4+1+2+3+4+1+2+3+4+1+2+3+4+1+2+3+4+1+2+3+4+1+2+
G|---------------------------------------------------------------------------|
D|---------------------------------------------------------------------------|
A|3---------------3---------------8---------------3---------------10------8--|
E|---------------------------------------------------------------------------|
  3+4+1+2+3+4
G|-------------------------------------|
D|-------------------------------------|
A|----3-------10-10-10-10-10-10-10-10--|
E|-------------------------------------|

There you go, thats all there is to it. The whole song just repeats 1 and
a half more times (only play part one after the first whole repetition). Also,
During the guitar solo, just play part one (To make it sound better you can
'jazz it up' with some slides ect).


| /  slide up
| \  slide down
| h  hammer-on
| p  pull-off
| ~  vibrato
| +  harmonic
| x  Mute note
=============================================================================