Surfaris - Wipe Out Chords & Tabs

 

Wipe Out Chords & Tabs

Surfaris Chords & Tabs

Version: 1 Type: Bass Tab 0 ratings
1 star 2 stars 3 stars 4 stars 5 stars
comments

Wipe Out Bass Tab

(Intro)
G-------------------------------------------------------------
D-------------------------------------------------------------
A-2/3-3-2-3-3-3-3-2-3-3-3------------------------------------- 1x
E-------------------------------------------------------------

(Chorus)
G-------------------------------------------------------------
D-------------------------------------------------------------
A-3-3-3--1-------1-2-3---------------------------------------- 4x
E-----------3-3-----------------------------------------------

G-------------------------------------------------------------
D-1-2-3--3-3-1----------------------------------------------
A-----------------3-3----------------------------------------- 2x
E-------------------------------------------------------------

G-------------------------------------------------------------
D-------------------------------------------------------------
A-1-2-3--3-3--1----------------------------------------------- 2x
E----------------3-3------------------------------------------
[ Tab from: http://www.guitartabs.cc/tabs/s/surfaris/wipe_out_btab.html ]
G------------------------------------------------------------
D-3-4-5--5-5-3-----5-----------------------------------------
A--------------5-5------------------------------------------- 1x 
E------------------------------------------------------------

G-------------------------------------------------------------
D-3-3--1-----3------------------------------------------------
A--------3-3-------------------------------------------------- 1x
E-------------------------------------------------------------

G-------------------------------------------------------------
D-------------------------------------------------------------
A-3-3-3--1-------3-1------------------------------------------ 1x
E-----------3-3-------3-3-3-3-3-3-3-3-------------------------

(Drum Solo)
G-------------------------------------------------------------
D-------3--------3--------------------------------------------
A-3--3-----3--------3----------------------------------------- 1x
E-------------3-----------------------------------------------

After that you play the whole thing except for the intro a couple of times.
Listen to the song and you will see what I mean. It is a fun song to play!
HAVE FUN!
Comments