Sureshot7 - No Admittance Chords & Tabs

 

No Admittance Chords & Tabs

Sureshot7 Chords & Tabs

Version: 1 Type: Tab 0 ratings
1 star 2 stars 3 stars 4 stars 5 stars
comments

No Admittance Tab

this one's kinda easy. play only the sixth and fifth strings. it actually
really sounds good with a wah or a palm mute.

e -----------------
b -----------------
g -----------------
d -----------------
a --11--9--7--9----
e --9 --7--5--7----
[ Tab from: http://www.guitartabs.cc/tabs/s/sureshot7/no_admittance_tab.html ]
that's the entire middle of the song. the ending is like this:

e ---------------------------
b ---------------------------
g ---------------------------
d ---------------------------
a --5-5--7-7-7-7-7-7-7--2----
e --3-3--5-5-5-5-5-5-5--0----

try putting a solo to this song. it's pretty sweet what you can come
up with. have fun!
Comments