Supertramp - The Logical Song Chords & Tabs

 

The Logical Song Chords & Tabs

Supertramp Chords & Tabs

Version: 2 Type: Bass Tab 0 ratings
1 star 2 stars 3 stars 4 stars 5 stars
comments

The Logical Song Bass Tab

SUPERTRAMP - "The Logical Song" - Bass Tab

Common Time(4/4)
Standard Tuning(EADG)

INTRO:
|-------|
|-------|
|-----1-|
|-1h3---|

1ST VERSE: Rest

2ND VERSE:
|-------------|-------------|-----------|-----------|-----------|
|-------------|-------------|-----------|-----------|-----------|
|-3-r-3-3-r-3-|-------------|-----------|-----------|-----------|
|-------------|-4-r-4-3-r-3-|-3-r-6-r-6-|-6-r-4-r-4-|-5-r-5-5-r-|
  1 2 & 3 4 &   1 2 & 3 4 &   1 2 3 4 &   1 2 3 4 &   1 2 & 3 4

CHORUS:
            (x6)
|---------------|-----------|-----------|
|*-------------*|-----------|-----------|
|*-6---6-r-----*|-4---3-----|-----------|
|----------4h6--|-----------|-6---4-----|
   1 2 & 3 4 &    1 2 & 3 4   1 2 & 3 4 

            (x6)
|---------------|-----------|-----------|-----------|-----------|
|*-------------*|-----------|-----------|-----------|-----------|
|*-6---6-r-----*|-4---3-----|-----------|-4---3-----|-----------|
|----------4h6--|-----------|-6---4-----|-----------|-6---4-----|
   1 2 & 3 4 &    1 2 & 3 4   1 2 & 3 4   1 2 & 3 4   1 2 & 3 4
[ Tab from: http://www.guitartabs.cc/tabs/s/supertramp/the_logical_song_btab_ver_2.html ]
3RD VERSE:
|-------------|-------------|-----------|-----------|-----------|
|-------------|-------------|-----------|-----------|-----------|
|-3-r-3-3-r-3-|-------------|-----------|-----------|-----------|
|-------------|-4-r-4-3-r-3-|-3-r-6-r-6-|-6-r-4-r-4-|-5-r-5-5-r-|
  1 2 & 3 4 &   1 2 & 3 4 &   1 2 3 4 &   1 2 3 4 &   1 2 & 3 4

|-------------|-------------|-----------|-----------|-------------|
|-------------|-------------|-----------|-----------|-------------|
|-3-r-3-3-r-3-|-------------|-----------|-----------|-------3-r-3-|
|-------------|-4-r-4-3-r-3-|-3-r-6-r-6-|-6-r-4-r-4-|-5-r-5-------|
  1 2 & 3 4 &   1 2 & 3 4 &   1 2 3 4 &   1 2 3 4 &   1 2 & 3 4 &

|-----------|
|-------5-r-|
|-6-r-6-----|
|-----------|
  1 2 & 3 4 

SOLO: Like 3rd Verse

END:
|------5-r-r-3-|-5-r-5-9-----|-----5-r-----|---------|
|*-3-5---------|---------9-r-|-3-5-----6-5-|-3-------|
|*-------------|-------------|-------------|---------|
|--------------|-------------|-------------|---------|
   1 & 2 3 4 &   1 2 & 3 & 4   1 & 2 3 & 4   1 2 3 4 

|------5-r-r-3-|-5-r-5-9-----|-----5-r-----|---------|---------|
|*-3-5---------|---------9-r-|-3-5-----6-5-|-3-------|-6-------|
|*-------------|-------------|-------------|-----6---|---------|
|--------------|-------------|-------------|---------|---------|
   1 & 2 3 4 &   1 2 & 3 & 4   1 & 2 3 & 4   1 2 3 4   1 2 3 4

By: Johari Taylor
E-mail: viking@powerup.com.au

Comments