Supertramp - Goodbye Stranger Chords & Tabs

 

Goodbye Stranger Chords & Tabs

Supertramp Chords & Tabs

Version: 1 Type: Bass Tab 0 ratings
1 star 2 stars 3 stars 4 stars 5 stars
comments

Goodbye Stranger Bass Tab

SUPERTRAMP - "Goodbye Stranger" - Bass Tab

Common Time(4/4)
Standard Tuning(EADG)

VERSE:
      (x11)                                               (x11)
|-----------|---------|---------|---------|---------|-----------|
|*---------*|---------|---------|---------|---------|*---------*|
|*-r-e-s-t-*|---------|---------|-4-------|-1-------|*-r-e-s-t-*|
|-----------|-2-------|-1-------|---------|---------|-----------|
   1 2 3 4    1 2 3 4   1 2 3 4   1 2 3 4   1 2 3 4    1 2 3 4

|---------|---------|---------|---------|---------|---------|
|---------|---------|---------|---------|---------|---------|
|---------|---------|-4-------|-1-------|---------|---------|
|-2-------|-1-------|---------|---------|-4-------|-2-------|
  1 2 3 4   1 2 3 4   1 2 3 4   1 2 3 4   1 2 3 4   1 2 3 4

                           (x7)
|---------|---------|-----------|--------------|-------------|
|---------|---------|*---------*|*-------------|-6-----------|
|-4-------|-1-------|*-r-e-s-t-*|*---------4-6-|---------4-6-|
|---------|---------|-----------|--------------|-------------| 
  1 2 3 4   1 2 3 4    1 2 3 4    1 2 3 4 & a   1 2 3 4 & a
[ Tab from: http://www.guitartabs.cc/tabs/s/supertramp/goodbye_stranger_btab.html ]
|-------------|-------------|------------------|---------|
|-4-----------|-3-----------|----------1------*|---------|
|---------4-6-|-------------|-1---1-4-----4-6-*|---------|
|-------------|---------1-4-|------------------|-2-------|
  1 2 3 4 & a   1 2 3 4 & a   1 2 & a 3 4 & a    1 2 3 4

END:
|---------|---------|---------|---------|---------|---------|
|---------|---------|---------|---------|---------|---------|
|---------|---------|---------|---------|---------|---------|
|---------|-4-------|-4-------|-4-------|-4-------|-4-------|
  1 2 3 4   1 2 3 4   1 2 3 4   1 2 3 4   1 2 3 4   1 2 3 4

|---------|---------|------------------|---------------------|
|---------|---------|*-----------------|---------------------|
|---------|---------|*-----------------|---------------1-2-3-|
|-4---4---|-4-4-4-4-|--4---0-4-4---0-4-|-4---0-4---0-4-------|
  1 2 3 4   1 2 3 4    1 & a 2 3 & a 4   1 & a 2 & a 3 & 4 &

                              (fade-out)
|-----------------|----------------------|
|-----------------|---------------------*|
|-4---0-4-4---0-4-|-4---0-4---0-4-2-1---*|
|-----------------|-------------------2--|
  1 & a 2 3 & a 4   1 & a 2 & a 3 & 4 &

By: Johari Taylor
E-mail: viking@powerup.com.au


Comments