Supertramp - Give A Little Bit Chords & Tabs

 

Give A Little Bit Chords & Tabs

Supertramp Chords & Tabs

Version: 1 Type: Tab 1 rating
1 star 2 stars 3 stars 4 stars 5 stars
comments

Give A Little Bit Tab

   

GIVE A LITTLE BIT - SUPERTRAMP

Unknown Tabber



    A     Dadd9/A         A     Dadd9/A        G6/A       A         G6/A      A
 
--0-0-0----0-0-0--------0-0-0----0-0-0--------0-0-0----0-0-0--------0-0-0----0-0--
--5-5-5----7-7-7--------5-5-5----7-7-7--------3-3-3----5-5-5--------3-3-3----5-5--
--6-6-6----7-7-7--------6-6-6----7-7-7--------4-4-4----6-6-6--------4-4-4----6-6--
--7-7-7----0-0-0--------7-7-7----0-0-0--------5-5-5----7-7-7--------5-5-5----7-7--
--0-0-0----0-0-0--------0-0-0----0-0-0--------0-0-0----0-0-0--------0-0-0----0-0--
----------------------------------------------------------------------------------
            
                    
        A     Dadd9/A                  A      Dadd9/A           

              
           
--0----0-0-0----0-0-0----------------0-0-0----0-0--    
--5----5-5-5----7-7-7----------------5-5-5----7-7--    
--6----6-6-6----7-7-7----------------6-6-6----7-7--    
--7----7-7-7----0-0-0----------------7-7-7----0-0--    
--0----0-0-0----0-0-0----------------0-0-0----0-0--    
---------------------------------------------------    

        G6/A      A         G6/A      A          A     Dadd9/A       A     Dadd9/A
 
    
 
--0----0-0-0----0-0-0------0-0-0----0-0-0------0-0-0----0-0-0------0-0-0----0-0--
--7----3-3-3----5-5-5------3-3-3----5-5-5------5-5-5----7-7-7------5-5-5----7-7--
--7----4-4-4----6-6-6------4-4-4----6-6-6------6-6-6----7-7-7------6-6-6----7-7--
--0----5-5-5----7-7-7------5-5-5----7-7-7------7-7-7----0-0-0------7-7-7----0-0--
--0----0-0-0----0-0-0------0-0-0----0-0-0------0-0-0----0-0-0------0-0-0----0-0--
---------------------------------------------------------------------------------

        G6/A      A        G6/A       A           Bm7   Emadd9  Em      E7



--0----0-0-0----0-0-0------0-0-0----0-0-0------2--2--2--2----2----3----0-0-0-0-----
--7----3-3-3----5-5-5------3-3-3----5-5-5------0--0--0--0----0----0----0-0-0-0-----
--7----4-4-4----6-6-6------4-4-4----6-6-6------2--2--2--2----0----0----1-1-1-1-----
--0----5-5-5----7-7-7------5-5-5----7-7-7------0--0--0--0----2----2----0-0-0-0-----
--0----0-0-0----0-0-0------0-0-0----0-0-0------2--2--2--2----2----2----2-2-2-2-----
--------------------------------------------------------------------------------2--

            G                 A7   A7sus4add6   A7       A     Dadd9/A

  

--3----3----3-3-3-3----3----0-0-0----0-0-0----0-0-0----0-0-0----0-0--
--3----3----3-3-3-3----3----2-2-2----3-3-3----5-5-5----5-5-5----7-7--
--0----0----0-0-0-0----0----0-0-0----0-0-0----0-0-0----6-6-6----7-7--
--0----0----0-0-0-0----0----2-2-2----4-4-4----5-5-5----7-7-7----0-0--
--2----2----2-2-2-2----2----0-0-0----0-0-0----0-0-0----0-0-0----0-0--
--3----3----3-3-3-3----3---------------------------------------------

BRIDGE:

     F#7           F#          Bm/A                  Gmaj7            A7    A7sus4add6
[ Tab from: http://www.guitartabs.cc/tabs/s/supertramp/give_a_little_bit_tab.html ]
--0-0-0-0-0----2-2-2-2-2----2----0---------0-2--   --2--0--------  --0-0-0----0-0-0--
--2-2-2-2-2----2-2-2-2-2----3----3----3----3-3--   --0--0--3--0--  --2-2-2----3-3-3--
--3-3-3-3-3----3-3-3-3-3----4----4----4----4-4--   --0--0--0--0--  --0-0-0----0-0-0--
--4-4-4-4-4----4-4-4-4-4----0----0----0----0-0--   --0--0--0--0--  --2-2-2----4-4-4--
--4-4-4-4-4----4-4-4-4-4----0----0----0----0-0--   --2--2--2-----  --0-0-0----0-0-0--
--2-2-2-2-2----2-2-2-2-2------------------------   --3--3--3-----  ------------------

   A7    A7sus4add6  A7    A7sus4add6   A7       A     Dadd9/A    

--0-0-0----0-0-0----0-0-0----0-0-0----0-0-0----0-0-0----0-0--
--5-5-5----3-3-3----2-2-2----3-3-3----5-5-5----5-5-5----7-7--
--0-0-0----0-0-0----0-0-0----0-0-0----0-0-0----6-6-6----7-7--      ----> 3rd verse ---->
--5-5-5----4-4-4----2-2-2----4-4-4----5-5-5----7-7-7----0-0--      Bm7-Emadd9-Em-E7-G
--0-0-0----0-0-0----0-0-0----0-0-0----0-0-0----0-0-0----0-0--      ----> coda
-------------------------------------------------------------

CODA:

           G               Cadd9      G            A7   A7sus4add6   A7    A7sus4add6


--3----3----3----3-3------3----3----3----3-3------0-0-0----0-0-0----0-0-0----0-0-0----
--3----3----3----3-3------3----3----3----3-3------2-2-2----3-3-3----5-5-5----3-3-3----
--0----0----0----0-0------0----0----0----0-0------0-0-0----0-0-0----0-0-0----0-0-0----
--0----0----0----0-0------2----2----0----0-0------2-2-2----4-4-4----5-5-5----4-4-4----
--2----2----2----2-2------3----3----2----2-2------0-0-0----0-0-0----0-0-0----0-0-0----
--3----3----3----3-3----------------3----3-3------------------------------------------


   A7    A7sus4add6  A7    A7sus4add6   A7   A7sus4add6   A7       A    Dadd9/A    

  

--0-0-0----0-0-0----0-0-0----0-0-0----0-0-0----0-0-0----0-0-0----0-0-0----0-0--
--2-0-2----3-3-3----5-5-5----3-3-3----2-2-2----3-3-3----5-5-5----5-5-5----7-7--
--0-0-0----0-0-0----0-0-0----0-0-0----0-0-0----0-0-0----0-0-0----6-6-6----7-7--      
--2-0-2----4-4-4----5-5-5----4-4-4----2-2-2----4-4-4----5-5-5----7-7-7----0-0--      
--0-0-0----0-0-0----0-0-0----0-0-0----0-0-0----0-0-0----0-0-0----0-0-0----0-0--   
-------------------------------------------------------------------------------

Dadd9/A  Em7/A      G6/A   Dadd9/A  Dadd9/A    Cadd9/A    G6/A   Dadd9/A  Dadd9/A



----0----0-0-0----0--0--0---0----0--0-0--    --0--0--0----0-0----0--0----0----0-0--  play
----7----8-8-8---12-12-12--10----7--7-7--    --5--5--5----5-5----3--3----3----7-7--  few
----7----9-9-9---12-12-12--11----7--7-7--    --5--5--5----5-5----4--4----2----7-7--  times
----0----0-0-0----0--0--0---0----0--0-0--    --0--0--0----0-0----0--0----0----0-0--
----0----0-0-0----0--0--0---0----0--0-0--    --0--0--0----0-0----0--0----0----0-0--
-----------------------------------------    --------------------------------------

      Cadd9/A              G6/A               Cadd9                       A7   A 



--0--0--0----0-0----0--0----0----0-0--   --0----0----0--------------------0----0--
--5--5--5----5-5----3--3----3----3-4--   --3----3----3--------------------2----5--
--5--5--5----5-5----4--4----4----3-4--   --0----0----0--------------------0----6--
--0--0--0----0-0----0--0----0----0-0--   --2----2----2--------------------2----7--
--0--0--0----0-0----0--0----0----0-0--   --3----3----3--------------------0----0--
--------------------------------------   -----------------------------------------

Dadd9/A  Em7/A      G6/A   Dadd9/A  Dadd9/A   D   

-night

----0----0-0-0------0--0--0-----0------0-----10---   
----7----8-8-8-----12-12-12----10------7------7---    
----7----9-9-9-----12-12-12----11------7------7---   
----0----0-0-0------0--0--0-----0------0------0---   
----0----0-0-0------0--0--0-----0------0------0---  
-------------------------------------------------- 
Comments