Supertramp - Coming Home To See You Chords & Tabs

 

Coming Home To See You Chords & Tabs

Supertramp Chords & Tabs

Version: 2 Type: Bass Tab 0 ratings
1 star 2 stars 3 stars 4 stars 5 stars
comments

Coming Home To See You Bass Tab

SUPERTRAMP "Coming home to see you" INDELIBLY STAMPED
                                        _
Bass tab 
Transcribed by Seignier Sebastien (04/1999)
ngc666@innocent.com

Any comments, suggestions, or errors
refering to the tab below that should be brought to my attention, e-mail me.


Introduction : Piano solo + Vocal

Following:
  
----------|----------|----------|----------|----------|----------|
-5---5--3-|-5---5--3 |-5---5--3-|-5---5-57-|-8---8--7-|-8---8-89-|
---5---5--|---5---5--|---5---5--|---5------|---8---8--|---8------|
----------|----------|----------|----------|----------|----------|

--------------|-------------|
-10----10---8-|-10----10-87-|
----10----10--|----10-------|
--------------|-------------|

----------|----------|----------|----------|----------|----------|
-5---5--3-|-5---5--3 |-5---5--3-|-5---5-57-|-8---8--7-|-8---8-89-|
---5---5--|---5---5--|---5---5--|---5------|---8---8--|---8------|
----------|----------|----------|----------|----------|----------|

--------------|-------------------|
-10----10---8-|-10-10-10-8-10-----|... acoustic guitar 8 measures
----10----10--|-------------------|
--------------|-------------------|

----------|----------|----------|----------|----------|----------|
-5---5--3-|-5---5--3 |-5---5--3-|-5---5----|----------|----------|
---5---5--|---5---5--|---5---5--|---5---53-|-1---1--0-|-1---1-12-|
----------|----------|----------|----------|---1---1--|---1------|

----------|-----------|
----------|--------3--|
-3---3--1-|-3---3-5---|
---3---3--|---3-------|
[ Tab from: http://www.guitartabs.cc/tabs/s/supertramp/coming_home_to_see_you_btab_ver_2.html ]
----------|----------|----------|----------|----------|----------|
-5---5--3-|-5---5--3 |-5---5--3-|-5---5----|----------|----------|
---5---5--|---5---5--|---5---5--|---5---53-|-1---1--0-|-1---1-12-|
----------|----------|----------|----------|---1---1--|---1------|

----------|-----------|
----------|-------34--|
-3---3--1-|-3---35----|
---3---3--|---3-------|

----------|----------|----------|----------|----------|----------|
-5---5--3-|-5---5--3 |-5---5--3-|-5---5----|----------|----------|
---5---5--|---5---5--|---5---5--|---5---53-|-1---1--0-|-1---1-12-|
----------|----------|----------|----------|---1---1--|---1------|

----------|-----------|
----------|--------3--|
-3---3--1-|-3---3-5---|
---3---3--|---3-------|

----------|----------|----------|----------|----------|----------|
-5---5--3-|-5---5--3 |-5---5--3-|-5---5-57-|-8---8--7-|-8---8-89-|
---5---5--|---5---5--|---5---5--|---5------|---8---8--|---8------|
----------|----------|----------|----------|----------|----------|

--------------|-------------|
-10----10---8-|-10----10-87-|
----10----10--|----10-------|
--------------|-------------|

----------|----------|----------|----------|----------|----------|
-5---5--3-|-5---5--3 |-5---5--3-|-5---5-57-|-8---8--7-|-8---8-89-|
---5---5--|---5---5--|---5---5--|---5------|---8---8--|---8------|
----------|----------|----------|----------|----------|----------|

--------------|--------------|
-10----10---8-|-10----10-810-|
----10----10--|----10--------|
--------------|--------------|

----------|----------|----------|----------|----------|----------|
-5---5--3-|-5---5--3 |-5---5--3-|-5---5-57-|-8---8--7-|-8---8-89-|
---5---5--|---5---5--|---5---5--|---5------|---8---8--|---8------|
----------|----------|----------|----------|----------|----------|

--------------|-------------|
-10----10---8-|-10----10-87-| Repeat until the end
----10----10--|----10-------| 
--------------|-------------|

Comments