Supertramp - Breakfast In America Chords & Tabs

 

Breakfast In America Chords & Tabs

Supertramp Chords & Tabs

Version: 2 Type: Bass Tab 0 ratings
1 star 2 stars 3 stars 4 stars 5 stars
comments

Breakfast In America Bass Tab

   
SUPERTRAMP - "Breakfast In America" - Bass Tab

Common Time(4/4)
Drop Eb Tuning(Eb,A,D,G)

INTRO:
G |-----------|
D |*---------*|
A |*-r-e-s-t-*|(x4)
Eb|-----------|
     1 2 3 4

VERSE 1:
G |---------|---------|---------|---------|---------|---------|
D |-.---.---|-.---.---|---------|-------.-|-.---.---|-.---.---|
A |-3-r-3-r-|-1-r-1-r-|-.---.---|-.---.-1-|-3-r-3-r-|-1-r-1-r-|
Eb|---------|---------|-5-r-5-0-|-5-r-5---|---------|---------|
    1 2 3 4   1 2 3 4   1 2 3 4   1 2 3 4   1 2 3 4   1 2 3 4

G |---------|---------|-----------|-----------|-5---------|
D |---------|---------|-5---------|-5---------|---.---.---|
A |-.---.---|-.---.---|---.---.---|---.---.---|---3-r-3-r-|
Eb|-5-r-5-r-|-5-r-5-r-|---4-r-4-r-|---4-r-4-r-|-----------|
    1 2 3 4   1 2 3 4   1 & 2 3 4   1 & 2 3 4   1 & 2 3 4

G |-5---------|-----------|-----------|---------|---------|
D |---.---.---|-5---------|-5---------|---------|---------|
A |---3-r-3-r-|---.---.---|---.---.---|---------|-1-------|
Eb|-----------|---4-r-4-r-|---4-r-4-r-|-2-------|---------|
  1 & 2 3 4   1 & 2 3 4   1 & 2 3 4   1 2 3 4   1 2 3 4

G |-------1/|-3-------|
D |-3-------|---------|
A |---------|---------|
Eb|---------|---------|
    1 2 3 4   1 2 3 4

VERSES 2 & 3:
G |---------|---------|---------|---------|-5---------|---------|
D |-.---.---|-.---.---|---------|-------.-|---.---.---|-.---.---|
A |-3-r-3-r-|-1-r-1-r-|-.---.---|-.---.-1-|---3-r-3-r-|-1-r-1-r-|
Eb|---------|---------|-5-r-5-0-|-5-r-5---|-----------|---------|
    1 2 3 4   1 2 3 4   1 2 3 4   1 2 3 4   1 & 2 3 4   1 2 3 4

G |---------|---------|-----------|-----------|-5---------|
D |---------|---------|-5---------|-5---------|---.---.---|
A |-.---.---|-.-.-.-.-|---.---.---|---.---.---|---3-r-3-r-|
Eb|-5-r-5-r-|-5-4-2-0-|---4-r-4-r-|---4-r-4-r-|-----------|
    1 2 3 4   1 2 3 4   1 & 2 3 4   1 & 2 3 4   1 & 2 3 4

G |-5---------|-----------|-----------|---------|---------|
D |---.---.---|-5---------|-5---------|---------|---------|
A |---3-r-3-r-|---.---.---|---.---.---|---------|-1-------|
Eb|-----------|---4-r-4-r-|---4-r-4-r-|-2-------|---------|
    1 & 2 3 4   1 & 2 3 4   1 & 2 3 4   1 2 3 4   1 2 3 4
[ Tab from: http://www.guitartabs.cc/tabs/s/supertramp/breakfast_in_america_btab_ver_2.html ]
G |-------1/|-3-------|----------|
D |-3-------|---------|----------|
A |---------|---------|----------|
Eb|---------|---------|-----19//-|
    1 2 3 4   1 2 3 4   1 2 3  4

MIDDLE:
G |-------.---|-----------|-5---------|-5---------|-.-------.---|
D |-5-----5---|-5---------|---.---.---|---.---.---|-5-------5---|
A |---.-------|---.---.---|---3-r-3-r-|---3-r-3-r-|---.---------|
Eb|---4-r---r-|---4-r-4-r-|-----------|-----------|---4-r-4---r-|
    1 & 2 3 4   1 & 2 3 4   1 & 2 3 4   1 & 2 3 4   1 & 2 3 & 4

G |-.---------|-5---------|-5---------|---------|-----------|
D |-5---------|---.---.---|---.-------|---------|-----------|
A |---.---.---|---3-r-3-r-|---3-r-1-3-|---------|-----------|
Eb|---4-r-4-r-|-----------|-----------|-5-------|-----5-4---|
    1 & 2 3 4   1 & 2 3 4   1 & 2 3 4   1 2 3 4   1 2 3 & 4

G |---------|---------|
D |---------|---------|
A |---------|---------|
Eb|-2-----2/|-7-------|
    1 2 3 4   1 2 3 4

END:
G |-----------|-----------|-5---------|-5---------|-.---------|
D |-5---------|-5---------|---.---.---|---.---.---|-5---------|
A |---.---.---|---.---.---|---3-r-3-r-|---3-r-3-r-|---.-------|
Eb|---4-r-4-r-|---4-r-4-r-|-----------|-----------|---4-r-4-r-|
    1 & 2 3 4   1 & 2 3 4   1 & 2 3 4   1 & 2 3 4   1 & 2 3 4

G |-.---------|-5---------|-5-----------|-----------|-----------|
D |-5---------|---.---.---|---.---------|-5---------|-5---------|
A |---.---.---|---3-r-3-r-|---3-r-3-5-6-|---.---.---|---.---.---|
Eb|---4-r-4-r-|-----------|-------------|---4-r-4-r-|---4-r-4-r-|
    1 & 2 3 4   1 & 2 3 4   1 & 2 3 & 4   1 & 2 3 4   1 & 2 3 4

G |-5---------|-----------|-----------|-----------|-5---------|
D |---.---.---|-5---------|-5---------|-5---------|---.---.---|
A |---3-r-3-r-|---.---.---|---.---.---|---.---.---|---3-r-3-r-|
Eb|-----------|---4-r-4-r-|---4-r-4-r-|---4-r-4-r-|-----------|
    1 & 2 3 4   1 & 2 3 4   1 & 2 3 4   1 & 2 3 4   1 & 2 3 4

G |-5---------|---------|-----------|---------|---------|---------|
D |---.-------|---------|-----------|---------|---------|---------|
A |---3-r-1-3-|---------|-----------|---------|---------|---------|
Eb|-----------|-5-------|-----5-4---|-2-------|-------2/|-7-------|
    1 & 2 3 4   1 2 3 4   1 2 3 & 4   1 2 3 4   1 2 3 4   1 2 3 4

By: Johari Taylor
E-mail: viking@powerup.com.au
More Bass Tabs: http://www.powerup.com.au/~viking/basstab.htm





Comments