Supertones - Unite Chords & Tabs

 

Unite Chords & Tabs

Supertones Chords & Tabs

Version: 1 Type: Tab 0 ratings
1 star 2 stars 3 stars 4 stars 5 stars
comments

Unite Tab

          Author/Artist: Supertones
          Title: Unite
          Album: Supertones Strike Back
          Transcribed by: Dominic "Let's Go Bowling" Greco
          Email: misterj13@hotmail.com
          
          -------------------------------------|-----------------|----------------------
          -------------------------------------|-----------------|----------------------
          -------------------------------------|-----------------|----------------------
          --8-8-8-8-8---6-6-6-6-6----8-8-8-8-8-|-11-11-11-11-11--|----------------------
          --8-8-8-8-8---6-6-6-6-6----8-8-8-8-8-|-11-11-11-11-11--|-15--15--15--15--15---
          --6-6-6-6-6---4-4-4-4-4----6-6-6-6-6-|--9--9--9--9--9--|-13--13--13--13--13---
                                                  first             second              
          
          -6----6-66-6----4--44-4---|---------------------------------------------------
          -6----6-66-6----4--44-4---|---------------------------------------------------
          -6----6-66-6----4--44-4---|---------------------------------------------------
          -8----8-88-8----6--66-6---|-8-8-8-8-8--11-11-11-11-11---6-6-6-6-6-------------
          --------------------------|-8-8-8-8-8--11-11-11-11-11---6-6-6-6-6--15-15-15---
          --------------------------|-6-6-6-6-6---9--9--9--9--9---4-4-4-4-4--13-13-13---
           verse                       Chorus                                           
          
          ------|---------------------------------------------|-------------------------
          ------|---------------------------------------------|-------------------------
          ------|---------------------------------------------|-------------------------
          ------|---------------------------------------------|-------------------------
          -15-15|-1-1-1-1----------6-----1-1-1-------4-4-4-3--|-------------------------
          -13-13|---------1-1--4-4---4---------1-1-----------4|-------------------------
                  breakdown(clean and palm muted)play power chords along with trumpets
[ Tab from: http://www.guitartabs.cc/tabs/s/supertones/unite_tab.html ]
Comments