Supertones - Unite Chords & Tabs

 

Unite Chords & Tabs

Supertones Chords & Tabs

Version: 1 Type: Bass Tab 0 ratings
1 star 2 stars 3 stars 4 stars 5 stars
comments

Unite Bass Tab

Song: Unite
Artist: Supertones
Album: Supertones Strike Back
Tabbed out by Josiah Ziegler ( tjziegle@piper.hamline.edu )

INTRO

G|---------------------------------|
D|---------------------------------|
A|-1-1-4-1-1---0-1-1-1-4-4-1-1-1-0-|
E|-----------4---------------------|

AFTER CHORUS 
[ Tab from: http://www.guitartabs.cc/tabs/s/supertones/unite_btab.html ]
G|---------------------------------------------------|
D|---------------------------------------------3-3-3-|
A|-1-1-1-------1-1-1-4-4-4-1-1-1--------1-1-1--------|
E|-------1-1-1---------------------1-1-1-------------|

VERSE

G|-------------------------------------------------|
D|-----------------1-------------------------------|
A|-1-1-1-1---1-----------1-1-1-1---1-4-4-4-4-3-----|
E|---------1---4-4---4----------1---------------4--|

CHORUS

G|----------------|
D|-----1-1--------|
A|-1-1-----3-3----|
E|-------------1-1|

BACK TO AFTER CHORUS

VERSE 

CHORUS

THEN DO THE COOL RIFF YOU DO IN THE VERSE AFTER THE
GUITAR DOES IT.

IF THERE ARE ANY MISTAKES E-MAIL ME. 
Comments