Supertones - Tonight Chords & Tabs

 

Tonight Chords & Tabs

Supertones Chords & Tabs

Version: 2 Type: Bass Tab 0 ratings
1 star 2 stars 3 stars 4 stars 5 stars
comments

Tonight Bass Tab

“Tonight”
by the Orange County Supertones
[ Tab from: http://www.guitartabs.cc/tabs/s/supertones/tonight_btab_ver_2.html ]
G--------------------------------------------------
D--------------------------------------------------
A---------------------------------7--7-7--7-5-7-10-
E-2-3-5-7-3-0-0-0-0-0-0-0-0-0-0--------------------


G---------------------------------------------------------
D---------------------------------------------------------
A-5--5-5--5-5--5-7-5-2------------------------------------
E----------------------3--3-3-2-3-5-7-3-0-0-0-0-0-0-0-0-0-



Intro


Verse


Chorus


Intro 2X


Chorus


G--------------------------------------------------
D--------------------------------------------------
A-7--7-7--7-7--7-5-7-10--5--5-5--5-5--5-7-5-2------
E---------------------------------------------3--3-


G--------------------------------------------------
D--------------------------------------------------
A----------------------------------7--7-7--7-7--7-5
E-3--2-3-5-7-3-0-0-0-0-0-0-0-0-0-0-----------------


G--------------------------------------------------
D--------------------------------------------------
A-7-10-5--5-5--5-5--5-7-5-2------------------------
E---------------------------3--3-3--2-3-5-7-3-0-0-0


G--------------------------------------------------
D--------------------------------------------------
A-------------------7-------5----------------------
E-0-0-0-0-0-0-0---------------------3--2-3-5-7-3-0-
Comments