Supertones - Supertones Strike Back Chords & Tabs

 

Supertones Strike Back Chords & Tabs

Supertones Chords & Tabs

Version: 1 Type: Tab 0 ratings
1 star 2 stars 3 stars 4 stars 5 stars
comments

Supertones Strike Back Tab

          Author/Artist: Supertones
          Title: Supertones Strike Back
          Album: Supertones Strike Back
          Transcribed by: Dominic "NCO" Greco
          Email: IAMAFENDERMAN@nerdcoreonline.zzm.com
          
          Standard tuning EADGBE
          
          ------------------------------|--------------------------------|--------------
          ------------------------------|--------------------------------|--------------
          -------------9-----------9---7|-----------9-9-----------9-7--7-|--------------
          -------------9-----------9---7|-----------9-9-----------9-7--7-|--------------
          -------------7-----------7---5|-----------7-7-----------7-5--5-|--------------
          --0-0-0-0-0----0-0-0-0-0------|-0-0-0-0-0-----0-0-0-0-0--------|--------------
            PM.......    .........  X2    .........     .........    x2                 
          
          ------------------------------------------------------|-----------------------
          ---------------------------5-x--5-x-5--7--7--8--7---7-|-----------------------
          ---------------------------6-x--5-x-5--7--7--7--7---7-|-----------------------
          ---------------------------7-x--5-x-5--7--7--7--7---7-|-----------------------
          ------------------------------------------------------|-----------------------
          ------------------------------------------------------|-----------------------
           Supertones Strike Back!                                                      
          
          ------------------------------------------------------------------------------
          ------------------------------------------------------------------------------
          -----------------------------------7-7-7-7-7-7-7---9-9-9-9-9-9-9--------------
          --7--7-7-7-7-7-7---4-4-4-4-4-4-4---7-7-7-7-7-7-7---9-9-9-9-9-9-9--------------
          --7--7-7-7-7-7-7---4-4-4-4-4-4-4---5-5-5-5-5-5-5---7-7-7-7-7-7-7--------------
          --5--5-5-5-5-5-5---2-2-2-2-2-2-2----------------------------------------------
           Chorus                                                                       
          
          -------------------------|--------------------|-------------------------------
          --5---5-5-5-5--5-5-5-----|--------------------|-------------------------------
          --7-b-7-7-7-7--5-5-5-----|--------------------|-------------------------------
          -------------------------|-7--7--2--2--4--4--5|-------------------------------
          -------------------------|-7--7--2--2--4--4--5|-------------------------------
          -------------------------|-5--5--0--0--2--2--3|-------------------------------
             little prechorus fill   bridge
[ Tab from: http://www.guitartabs.cc/tabs/s/supertones/supertones_strike_back_tab.html ]
Comments