Supertones - Supertones Strike Back Chords & Tabs

 

Supertones Strike Back Chords & Tabs

Supertones Chords & Tabs

Version: 1 Type: Bass Tab 0 ratings
1 star 2 stars 3 stars 4 stars 5 stars
comments

Supertones Strike Back Bass Tab

   
Artist: Supertones
Song: Supertones Strike Back
Album: Supertones Strike Back
Tabbed out by: Josiah Ziegler ( tjziegle@piper.hamline.edu )

INTRO:

G|----------------------------|
D|----------------------------|
A|--------- -7-------------7-5|
E|-5-5-5-5-5---5-5-5-5-5------|PLAY THIS 2X

G|------------------------------------|
D|------------------------------------|
A|------------7-7---------------7-5-5-|
E|-5-5-5-5-5-------5-5-5-5-5----------|PLAY THIS 2X
[ Tab from: http://www.guitartabs.cc/tabs/s/supertones/supertones_strike_back_btab.html ]
G|---------|
D|---------|
A|---------|
E|-5-3-2-0-|
VERSE
G|----------------------------------------------------|
D|-------------------------9--------------------------|
A|-------------------7-9------------------------7-9-7-|
E|-5-5-5-7-7-7-9-9-9---------5-5-5-7-7-7-9-9-9--------|PLAY THIS
THE WHOLE
VERSE

CHORUS & AFTER- CHORUS
G|----------------------------------------|
D|----------------------------------------|
A|----------------------------------------|
E|-5-5-5-5-2-2-2-2-10-10-10-10-12-10-9-7-5|

MIDDLE OF 2ND VERSE
G|-----------------|
D|-----------------|
A|-----------------|
E|-5-5-0-0-5-5-7-7-|

E-MAIL ME IF YOU FIND ANYTHING IS WRONG.  JOSIAH 
Comments