Supertones - So Great A Salvation Chords & Tabs

 

So Great A Salvation Chords & Tabs

Supertones Chords & Tabs

Version: 1 Type: Bass Tab 0 ratings
1 star 2 stars 3 stars 4 stars 5 stars
comments

So Great A Salvation Bass Tab

Bass Line:So Great A Salvation
By:The OC Supertones(Supertones Strike Back)
Submitted By:Casey Baggett

Main Scheme(Light,Easy Feel):

E-----------------------------------------------------
A---0-0-0-0-0-2-2-2-2-2-4-4-4-4-4-5-5-5-5-5-----------
D-----------------------------------------------------
G-----------------------------------------------------

Chorus(L&E Feel)

E-----------------------2-2-2-2-2-2-2-2-2-2-2---------
A---0-0-0-0-0-2-2-2-2-2-------------------------------
D-----------------------------------------------------
G-----------------------------------------------------

Bridge(Light/Easy):
[ Tab from: http://www.guitartabs.cc/tabs/s/supertones/so_great_a_salvation_btab.html ]
E-----------------------2-2-2-2-2-2-2-2---------------
A---0-0-0-0-0-2-2-2-2-2-----------------4-4-2-2-------
D-----------------------------------------------------
G-----------------------------------------------------

Close(I Think You Can Geuss):

E-----------------------------------------------------
A---5--5-4-2-0----------------------------------------
D-----------------------------------------------------
G-----------------------------------------------------

This song is very easy and repetetive in the way it's
written.There was originaly no bass line to this song
but I tried it out with the music,and it sounds fine.
Well,hope you enjoy!      Casey Baggett 
Comments