Supertones - Return Of The Revolution Chords & Tabs

 

Return Of The Revolution Chords & Tabs

Supertones Chords & Tabs

Version: 3 Type: Bass Tab 0 ratings
1 star 2 stars 3 stars 4 stars 5 stars
comments

Return Of The Revolution Bass Tab

intro/chorus:
E-2----------2
B---0-2--2-0-- x4
G------------- 
D-------------
[ Tab from: http://www.guitartabs.cc/tabs/s/supertones/return_of_the_revolution_btab_ver_3.html ]
verse:
E-22--------------------
B------432-2-24---------
G----20---------2-------
D-----------------------
Comments