Supertones - Return Of The Revolution Chords & Tabs

 

Return Of The Revolution Chords & Tabs

Supertones Chords & Tabs

Version: 2 Type: Bass Tab 0 ratings
1 star 2 stars 3 stars 4 stars 5 stars
comments

Return Of The Revolution Bass Tab

Song: Return of the Revolution
Band: Orange County Supertones
Album: Loud and Clear

	This is not the complete tab but i just found it out and it will at least be some help to all you Supertones fans.Well here it goes:

Intro/ Chorus:

G|------------------
D|------------------
A|-2--5--7---7--5--2
E|------------------


Verses:	(there a lot of variations but these are a few of them)
[ Tab from: http://www.guitartabs.cc/tabs/s/supertones/return_of_the_revolution_btab_ver_2.html ]
G|--------------------
D|-----5--------------
A|-7-7---7-5h7-0-2-5-7-
E|--------------------

G|-------------------
D|-----5-------------
A|-7-7---7-5h7-0-2\5--
E|-------------------

G|---------------------
D|-----5-------7-5-----
A|-7-7---7-5h7-----7-5-
E|---------------------

Then the little breakdown thing goes like this:

G|---------
D|---------
A|---------
E|-0--3--5-

	I know this is not all of it and it might not all be right but t sounds ok. Well luck. God Bless.

send corrections,comments,requests to
		ybbob182@hotmail.com
Comments