Supertones - Old Friend Chords & Tabs

 

Old Friend Chords & Tabs

Supertones Chords & Tabs

Version: 1 Type: Tab 0 ratings
1 star 2 stars 3 stars 4 stars 5 stars
comments

Old Friend Tab

This is the verse and chorus of the song. 
If anyone has the solo, please email me.

Standard Tuning
[ Tab from: http://www.guitartabs.cc/tabs/s/supertones/old_friend_tab.html ]
Verse 
-0-  ---  -0--0-  ---
-2-  ---  -2--2-  ---
-2-  -2-  -2--1-  -2-
-2-  -4-  -2--2-  -4-
-0-  -4-  -0--0-  -4-
---  -2-  ------  -2-

Chorus
-2-  -0-  ---  -2-  -0-
-3-  -2-  ---  -3-  -2-
-2-  -2-  -1-  -2-  -2-
-0-  -2-  -2-  -0-  -2-
---  -0-  -2-  ---  -0-
---  ---  -0-  ---  ---
 
Comments