Supertones - Little Man Chords & Tabs

 

Little Man Chords & Tabs

Supertones Chords & Tabs

Version: 4 Type: Bass Tab 0 ratings
1 star 2 stars 3 stars 4 stars 5 stars
comments

Little Man Bass Tab

Band: Supertones
Song: Little Man
Album: Supertones Strike Back

Tabbed by: Matt (MC) 
E-mail: mlit37@yahoo.com

-Intro 1-
G|------------------------------------------------------------|
D|------------------------------------------------------------|
A|-0-787---0-787-----787-0-77-55-33-22-0----------------------|
E|-------0-------8-7------------------------------------------| 
play that like a million times. then:

-Intro 2-
G|------------------------------------------------------------|
D|------------------------------------------------------------|
A|--------------------3-3p2-22--3-3p2-22----------------------|
E|-0-3/5-55--0-3/5-55-----------------------------------------|

G|------------------------------------------------------------|
D|------------------------------------------------------------|
A|--------------------3-3p2-22--3-77-55-33-22-0~--------------|
E|-0-3/5-55--0-3/5-55-----------------------------------------| 

-Verse-
G|------------------------------------------------------------|
D|-------------0-757-0-765----------------979-0-987-----------|
A|-0-757-0-757-------------75-0-757-0-756-----------97--------|
E|------------------------------------------------------------|   x whatever
[ Tab from: http://www.guitartabs.cc/tabs/s/supertones/little_man_btab_ver_4.html ]
-PreChorus-
G|------------------------------------------------------------|
D|------------------------------------------------------------|
A|-0000-55-3--------------------------------------------------|
E|-----------3------------------------------------------------|x4 or so.

-Chorus-
G|------------------------------------------------------------|
D|------------------------------------------------------------|
A|-00------333-55-3/5-----------------------------------------|
E|----33-0----------------------------------------------------| you kmnow when to stop.

-PostChorus-
G|------------------------------------------------------------|
D|------------------------------------------------------------|
A|-55555----00000-55555---2-00--------------------------------|
E|-------33-------------3-------------------------------------|x2 

Then repeat the verse and the prechorus and chorus and post chorus a few times
later when needed and you got one pimped out song right there. and the ending
goes a little like this:

-End-
G|------------------------------------------------------------|
D|------------------------------------------------------------|
A|-------------33333-55555------------------------------------|
E|-55555-33333------------------------------------------------|repeat that til
the song is done, this is pretty easy and i think this is all perfectly tight.
well email me if ya got any questions and thanks "ultimate-guitar"!! peace.
Comments