Supertones - Little Man Chords & Tabs

 

Little Man Chords & Tabs

Supertones Chords & Tabs

Version: 1 Type: Bass Tab 0 ratings
1 star 2 stars 3 stars 4 stars 5 stars
comments

Little Man Bass Tab

Bass Line:Little Man
By:The OC Supertones(Supertones Strike Back)
Submitted By:Casey Baggett

First Part Intro(Solid and Flowing):
                                                                           
E-------------------------------------------------------------------------
A---0---5-7-5-3--0---5-7-5-3--2---5-7-5-3--7-7-5-5-3-3-2-2----------------
D-------------------------------------------------------------------------
G-------------------------------------------------------------------------


Second Part(Hard Jazz Feel):

E---0--------0-0----------------------------------------------------------
A-----0--0-0-----0--0-0-3--3-2-2-2-3-3-2-2-2------------------------------
D-------------------------------------------------------------------------
G-------------------------------------------------------------------------

E---0-3-------0-3------------------------------0-0-3-3--------------------
A-------0-0-0-----0-0-0-3--3-2-2-2-3-3-2-2-0-0----------------------------
D-------------------------------------------------------------------------
G-------------------------------------------------------------------------

                            

Verse Line(Quick and Brisk):
E-------------------------------------------------------------------------
A---0---6-5-6-0---6-5-6-5---8-7-8-5---8-8765-0---6-5-6-0---6-5-6----------
D-------------------------------------------------------------------------

G-------------------------------------------------------------------------

E-------------------------------------------------------------------------
A---5---8-7-8-7--78765----------------------------------------------------
D-------------------------------------------------------------------------
G-------------------------------------------------------------------------



Bridge #1(Hard Rock Feel):
[ Tab from: http://www.guitartabs.cc/tabs/s/supertones/little_man_btab.html ]
E---------------3---------------------------3-----------------------------
A---0---3-2-3-2---0---3-2-3-5-2-0---3-2-3-2---0-3-2-3-5-2-----------------
D-------------------------------------------------------------------------
G-------------------------------------------------------------------------

Chorus(Light Feel):
E-------3--3-3-0-0--0-----------------------------------------------------
A---0-----------------3-0-3-0-0-------------------------------------------
D-------------------------------------------------------------------------
G-------------------------------------------------------------------------



Bridge #2(Lively/Rock):

E-----------3------------3-------------3------------3---------------------
A---5-5-5-5---0--5-5-5-5---2-0-5-5-5-5---0--5-5-5-5---2-3-----------------
D-------------------------------------------------------------------------
G-------------------------------------------------------------------------

Lead Into Bridge #1(Second Time/Hard Rock):

E---3-5---3-5---3-5---3-5---3-5---3-5---3-5---3-5-------------------------
A-------------------------------------------------------------------------
D-------------------------------------------------------------------------
G-------------------------------------------------------------------------

Full Closer(Full Hard Rock Feel):

E---3-5---3-5---3-5---3-5---3-5---3-5---3-5---3-5-------------------------
A-------------------------------------------------------------------------
D-------------------------------------------------------------------------
G-------------------------------------------------------------------------

E-----------3-3-3-3-------------------------3-3-3-3-----------------------
A---0-0-0-0---------3-3-3-3-5-5-5-5-0-0-0-0---------3-3-3-3-5-5-5-5-------
D-------------------------------------------------------------------------
G-------------------------------------------------------------------------

E-----------3-3-3-3-------------------------3-3-3-3-----------------3-5---
A---0-0-0-0---------3-3-3-3-5-5-5-5-0-0-0-0---------3-3-3-3-5-5-5-5-------
D-------------------------------------------------------------------------
G-------------------------------------------------------------------------

     
   This Is My First Song I Ever "TABBED",So I Hope You Like It And Enjoy! 
Comments