Supertones - Like No One Else Chords & Tabs

 

Like No One Else Chords & Tabs

Supertones Chords & Tabs

Version: 1 Type: Bass Tab 0 ratings
1 star 2 stars 3 stars 4 stars 5 stars
comments

Like No One Else Bass Tab

   
Group:                The Supertones    
Song: 'Like No One Else' -- Bass Tab    
Album:        Supertones Strike Back    
Tabbed by: Justin [bassjdog@aol.com]    
    
Listen to the CD to get the rythmn. It's kinda easy once you get the hang
of
it...    
    
Riff 1a:    
========    
    
G:-------------------    
D:-------7---4---4---    
A:---4-7-------5---5-    
E:-5-------7---------    
B:-------------------    
    
Riff 1b:    
========    
    
G:-----------------    
D:-------7---------    
A:---4-7-----------    
E:-5-------7-5-4-0-    
B:-----------------    
    
Riff 2:    
=======    
    
G:---------------------------------    
D:---------------------------------    
A:-5-5-5-5-5-5-5-5-7-7-7-7-7-7-7-7-    
E:---------------------------------    
B:---------------------------------    
    
I think he plays each note 8 times. Listen to the CD, it might be a tad
off,
but I doubt it.    
    
Riff 3:    
=======    
    
G:---------------------------------------    
D:---------------------------------------    
A:---------------7-6-5--5-5-5-8--8-8-7-7-    
E:-5--5-5-5-7--7-------------------------    
B:---------------------------------------    
    
Ending:    
=======    
    
G:---------    
D:---------    
A:-8--7----    
E:-------5-    
B:---------    
    
Just slow down the end on playing Riff 3 for the ending.    
    
Song Structure:    
======================    
    
---> Play Riff 1a
---> Play Riff 1b
---> Play Riff 1a
---> Play Riff 1b
---> Play Riff 1a 
---> Play Riff 1b
---> Play Riff 1a   
---> Play Riff 1b    
---> Play Riff 2   
---> Play Riff 3    
---> Play Riff 1a  
---> Play Riff 1b    
---> Play Riff 1a    
---> Play Riff 1b    
---> Play Riff 1a    
---> Play Riff 1b    
---> Play Riff 1a    
---> Play Riff 1b   
---> Play Riff 2 
---> Play Riff 3  
---> No bass 
---> Play Riff 2
---> Play Riff 3
---> Play Ending


[ Tab from: http://www.guitartabs.cc/tabs/s/supertones/like_no_one_else_btab.html ]
Comments