Supersuckers - Rock Your Ass Chords & Tabs

 

Rock Your Ass Chords & Tabs

Supersuckers Chords & Tabs

Version: 1 Type: Tab 0 ratings
1 star 2 stars 3 stars 4 stars 5 stars
comments

Rock Your Ass Tab

Another awesome tab to an awesome song by an awesome band...If you have a problem with
this, then that is, quite obviously, your problem.

Standard tuning

Main riff (intro/verses)
e|----------------------------------|
B|----------------------------------|
G|----------------------------------|
D|--8-8-8-8-8-8-6-8-8-8-8-8-8-8-8-8-|
A|--8-8-8-8-8-8-6-8-8-8-8-8-8-8-8-8-|
E|--6-6-6-6-6-6-4-6-6-6-6-6-6-6-6-6-|


e|----------------------------------|
B|----------------------------------|
G|----------------------------------|
D|--6-6-6-6-6-6-6-6-6-6-6-6-6-6-6-6-|
A|--6-6-6-6-6-6-6-6-6-6-6-6-6-6-6-6-|
E|--4-4-4-4-4-4-4-4-4-4-4-4-4-4-4-4-|

Chorus
e|----------------------------------|
B|----------------------------------|
G|----------------------------------|
D|--8-8-x-x-x-x-6-7-8-8-x-x-x-x-x-x-|
A|--8-8-x-x-x-x-6-7-8-8-x-x-x-x-x-x-|
E|--6-6-x-x-x-x-4-5-6-6-x-x-x-x-x-x-|
[ Tab from: http://www.guitartabs.cc/tabs/s/supersuckers/rock_your_ass_tab.html ]
e|----------------------------------|
B|----------------------------------|
G|----------------------------------|
D|--6-6-6-6-6-6-6-6-6-6-6-6-6-6-6-6-|
A|--6-6-6-6-6-6-6-6-6-6-6-6-6-6-6-6-|
E|--4-4-4-4-4-4-4-4-4-4-4-4-4-4-4-4-|

Bridge
e|----------------------------------|
B|----------------------------------|
G|----------------------------------|
D|----8---8-8---8---8---8-8---------|
A|----8---8-8---8---8---8-8---------|
E|----6---6-6---6---6---6-6---------|

e|----------------------------------|
B|----------------------------------|
G|-------------------6--------------|
D|----6---6-6---6--6-6---6-6--------|
A|----6---6-6---6--6-4---6-6--------|
E|----4---4-4---4--4-----4-4--------|

e|----------------------------------|
B|----------------------------------|
G|--------------------7-------------|
D|----8---8-8---8---8-7--8-8--------|
A|----8---8-8---8---8-5--8-8--------|
E|----6---6-6---6---6----6-6--------|

End on
e|-------|
B|-------|
G|-------|
D|---8---|
A|---8---|
E|---6---|let ring for a second, then loosen your grip and the note should mute itself properly

Enjoy!
Comments