Supersuckers - Evil Powers Of Rock N Roll Chords & Tabs

 

Evil Powers Of Rock N Roll Chords & Tabs

Supersuckers Chords & Tabs

Version: 2 Type: Tab 0 ratings
1 star 2 stars 3 stars 4 stars 5 stars
comments

Evil Powers Of Rock N Roll Tab

   
Artist: SuperSuckers
Song: Evil Powers of Rock ?N? Roll
Album: Evil Powers of Rock ?N? Roll


RIFF A

e |---------------------|
B |---------------------|
G |---------------------|
D |---------------------|
A |-2--2--5--5--7-7-7-7-|
E |-0--0--3--3--5-5-5-5-|

RIFF B1

e |------------------------------------|
B |------------------------------------|
G |------------------------------------|
D |-5-5-5-5-5-5-5-5--------------------|
A |-3-3-3-3-3-3-3-3--5-5-5-5-5-5-5-5---|
E |------------------3-3-3-3-3-3-3-3---|

RIFF B2

e |-----------------|
B |-----------------|
G |-----------------|
D |-----------------|
A |-7-7-7-7-7-7-7-7-|
E |-5-5-5-5-5-5-5-5-|

RIFF C
[ Tab from: http://www.guitartabs.cc/tabs/s/supersuckers/evil_powers_of_rock_n_roll_tab_ver_2.html ]
e |-----------------------------------------------------------------------------------|
B |-----------------------------------------------------------------------------------|
G |-----------------------------------------------------------------------------------|
D |5-5-5-5-7-7-7-7--9-9-9-9-9-9-9-9--7-7-7-7-7-7-7-7--5-5-5-5-5-5-5-5--7-7-7-7-7-7-7-7|
A |3-3-3-3-5-5-5-5--7-7-7-7-7-7-7-7--5-5-5-5-5-5-5-5--3-3-3-3-3-3-3-3--5-5-5-5-5-5-5-5|
E |-----------------------------------------------------------------------------------|

RIFF D

e |-------------|
B |-------------|
G |-------------|
D |-------------|
A |-2-2--5-5--7-|
E |-0-0--3-3--5-|


Now, here?s how the riff pattern goes:

A   (12x)
B1
A   (10x)
B1
B2
C
D   (4x)
A   (8x)
B1
B2
C   (2x)
D   (4x)
A   (8x)
B1
D   (3x)
B1
B2
C   (4x)
D   (4x)
Comments