Supersuckers - Cool Manchu Chords & Tabs

 

Cool Manchu Chords & Tabs

Supersuckers Chords & Tabs

Version: 2 Type: Tab 0 ratings
1 star 2 stars 3 stars 4 stars 5 stars
comments

Cool Manchu Tab

   
Artist: SuperSuckers
Song: Cool Manchu
Album: Evil Powers of Rock ?N? Roll


RIFF A

e |-----------|
B |-----------|
G |-----------|
D |----4--2-2-|
A |-2--2--0-0-|
E |-0---------|

RIFF B

e |---------------------------|
B |---------------------------|
G |---------------------------|
D |----4--X-X--4--2-2--X-X--2-|
A |-2--2--X-X--2--0-0--X-X--0-|
E |-0-------------------------|

RIFF C
[ Tab from: http://www.guitartabs.cc/tabs/s/supersuckers/cool_manchu_tab_ver_2.html ]
e |---------------------------------|
B |---------------------------------|
G |-------6-------8-------6---------|
D |-8-8-8---6-6-6---8-8-8---6-5-6-7-|
A |---------------------------------|
E |---------------------------------|

RIFF D

e |---------------------------------------|
B |---------------------------------------|
G |---------------------------------------|
D |--------7---------9---------7----------|
A |-9-9-9--5--7-7-7--7--9-9-9--5--7-6-7-8-|
E |-7-7-7-----5-5-5-----7-7-7-----5-4-5-6-|

Now, here?s how the riff pattern goes:

A  (4x)
B  (4x)
C  (2x)
A  (4x)
D  (4x)
A  (4x)
B  (4x)
D  (6x)
A  (until end of song)
Comments