Supermen - Supermen Chords & Tabs

 

Supermen Chords & Tabs

Supermen Chords & Tabs

Version: 1 Type: Tab 0 ratings
1 star 2 stars 3 stars 4 stars 5 stars
comments

Supermen Tab

--6----3-----5----34-5-3----346-3------4-5-234-------|
-3-42-3---15-14-----6-3-----5-34-5-----12-13-3-1--21-|
-----------------------------------------------------|
-----------------------------------------------------|
-----------------------------------------------------|
-----------------------------------------------------|
now the beginnings a little tricky
[ Tab from: http://www.guitartabs.cc/tabs/s/supermen/supermen_tab.html ]
--14-14-3-15-4-7-8-8-8-8-9-4-3-5--12-13--15----------|
6-6-4-4-3-5--7--8-9-9-12-12-13-13--------------------|
----------------------------------7-12-16-2-21-23----|
-2---------0-----------------------------------------|
-----4-----------------------------------------------|
-----------------------------------------------------|
chorus
-----------------------------------------------------|
-----------------------------------------------------|
-2---------3---------4-------------2-----------------|
-----2-----------3-----------4--------------4--------|
---------3---------3------------4--------------7-----|
-----------------------------------------------------| x3
verse
-----------------------------------------------------|
-----------------------------------------------------|
-3-----------------4---------------------------------|
-------------3------------------------5-----------5--|
-----------5----------------------5------------------|
-----------------------------------------------------|

-2--------------3---------------4--------------------|
-4--------------5---------------5--------------------|
-2--------------2---------------1--------------------|
-x--------------0---------------0--------------------|
-x--------------x---------------3--------------------|
----------------0---------------3--------------------|

the rest you'll figure out
Comments