Supermen - Supergirl Chords & Tabs

 

Supergirl Chords & Tabs

Supermen Chords & Tabs

Version: 1 Type: Tab 0 ratings
1 star 2 stars 3 stars 4 stars 5 stars
comments

Supergirl Tab

   
    D
E:|--------------15----14-----|--------------15----14-----|
B:|-----15--------------------|-----15--------------------|
G:|--------14-12----14----14--|--------14-12----14----14--|
D:|--12-----------------------|--12-----------------------|
A:|---------------------------|---------------------------|
E:|---------------------------|---------------------------|
    C
E:|--------------15----14-----|--------------15----14-----|
B:|-----15--------------------|-----15--------------------|
G:|--------14-12----------14--|--------14-12----------14--|
D:|--14-----------------------|--14-----------------------|
A:|---------------------------|---------------------------|
E:|---------------------------|---------------------------|

(PLAY TWO TIMES AND THEN GO TO THE FINISH PART)
    G
E:|--------------15----14-----|--------------15----14-----|
B:|-----15--------------------|-----15--------------------|
G:|--12----14-12----14----14--|--12----14-12----14----14--|
D:|---------------------------|---------------------------|
A:|---------------------------|---------------------------|
    D
E:|--------------15----14-----|--------------15----14-----|
B:|-----15--------------------|-----15--------------------|
G:|--------14-12----14----14--|--------14-12----14----14--|
D:|--12-----------------------|--12-----------------------|
A:|---------------------------|---------------------------|
E:|---------------------------|---------------------------|

    F(D-struct)                                  Bb (strum a few times)
E|---5------------------5-------------5--3--0-----1---------------1----|
B|---6----------6-------6----------6--------------3----------3----3----|
G|---5-------5----------5-------5-----------------3-------3-------3----|
D|---7----7---------------------------------------3----3---------------|
A|---------------------------------------------------------------------|
E|---------------------------------------------------------------------|

[ Tab from: http://www.guitartabs.cc/tabs/s/supermen/supergirl_tab.html ]
            F(D-struct)             F(barred,1st fret)      Bb(strum...)
E|--0h1--3----5----------------5------------------1---5p3--0--1-----------1--|
B|------------6----------6-----6---------------1--------------3--------3--3--|
G|------------5-------5--------5------------2-----------------3-----3-----3--|
D|------------7----7---------------------3--------------------3--3-----------|
A|------------------------------------3--------------------------------------|
E|---------------------------------------------------------------------------|


(the rest of the band kicks in here and starts to obscure things)

  C(Open)   F(D-struct)                                  Bb(strum...)
E|--0---------5------------------5-------------5--3--0-----1-----------1--|
B|--1---------6---------6--------6----------6--------------3--------3--3--|
G|--0---------5------5-----------5-------5-----------------3-----3-----3--|
D|--2---------7---7----------------------------------------3--3-----------|
A|--3---------------------------------------------------------------------|
E|--x---------------------------------------------------------------------|


            F(D-struct)                              Bb(strum/pick...)
E|--5--3------5-------------5------------------0--5p3---0---1-----------1--|
B|------------6---------5---6---------------1---------------3--------3--3--|
G|------------5------6------5------------0------------------3-----3-----3--|
D|------------7---7-------------------2---------------------3--3-----------|
A|---------------------------------3---------------------------------------|
E|-------------------------------------------------------------------------|

Chorus

|-------------------------------------|
|-------------------------------------|
|-66666666----------88888888----------|
|-66666666-66666666-88888888-66666666-|
|-44444444-66666666-66666666-66666666-|
|----------44444444----------44444444-|

|-------------------------------------|
|-------------------------------------|
|-66666666----------88888888----------|
|-66666666-66666666-88888888- Drums --|
|-44444444-66666666-66666666----------|
|----------44444444-------------------|

-----------------------------------------------------------|e
-----------------------------------------------------------|B
--9--------------------------------------------------------|G
--9---9--9----11-11-11-11-11--6---6---7---7---6--6--7--7---|D
--7---9--9----11-11-11-11-11--6---6---7---7---6--6--7--7---|A
------7--7----9--9--9--9--9---4---4---5---5---4--4--5--5---|E


-----------------------------------------------------------|e
-----------------------------------------------------------|B
--9--------------------------------------------------------|G
--9---9--9----11-11-11-11-11--6---6---7---7---6--6--7--7---|D
--7---9--9----11-11-11-11-11--6---6---7---7---6--6--7--7---|A
------7--7----9--9--9--9--9---4---4---5---5---4--4--5--5---|E
Comments