Supermen - Super Hero Chords & Tabs

 

Super Hero Chords & Tabs

Supermen Chords & Tabs

Version: 1 Type: Chords 0 ratings
1 star 2 stars 3 stars 4 stars 5 stars
comments

Super Hero Chords

   
Verse
F# G F# Bb

Chorus
D E D G

Solo
e--------------------------
b-5-3---3-5-3---3-5-3---3--
g-----4-------4-------4---2

e--------------------------
b-5-3---3-5-3---3-5-3---3-5/7
g-----4-------4-------4----

e--------------------------
b-5-3---3-5-3---3-5-3---3--
g-----4-------4-------4---2
[ Tab from: http://www.guitartabs.cc/tabs/s/supermen/super_hero_crd.html ]
e------------------------------
b-5-3---3-5-3---3-5-3---3-5---3
g-----4-------4-------4--------

ending
e----------------------------------
b----------------------------------
g----------------------------------
d----------------------------------
a-2-2-4-4-5-5-7-7-9---------------2
e-2-2-4-4-5-5-7-7-9---------------2


Verse
chorus
verse
chorus
1/2 verse
Solo
verse
chorus
ending
Comments