Supermen - Come To Me Chords & Tabs

 

Come To Me Chords & Tabs

Supermen Chords & Tabs

Version: 1 Type: Tab 0 ratings
1 star 2 stars 3 stars 4 stars 5 stars
comments

Come To Me Tab

   
Chorus
  E     B  E
e-4--4--2--4
b-5--5--4--5
g-4--4--4--4
d-----------
a-----------
e-----------
Repeat until
[ Tab from: http://www.guitartabs.cc/tabs/s/supermen/come_to_me_tab.html ]
e-4--4--2--12-12-12-12-12
b-5--5--4--12-12-12-12-12
g-4--4--4----------------
d------------------------
a------------------------
e------------------------

Verse
Same as the first part of the chorus
Comments